Song name
# A B C D E F G H I J K L M N O P Q R S T U V W X Y Z

The Magic Numbers - All I Believe In tab

e||-----0-0---------------|-----0-0-----------------|
B||-2-2-----2---0-----2---|-2-2-----2-2-0-0-0---2---|
G||-----------------2-----|-------------------2-----|
D||---------------------2-|-------------------------|
A||-----------------------|-------------------------|
E||-----------------------|-------------------------|


e||-----0-0-----------------------------------------|
B||-2-2-----2---0-----2-------------------------2h5-|
G||-----------------2---------2-------------2h4-----|
D||---------------------2--4----4--2----2h4---------|
A||----------------------------------0--------------|
E||-------------------------------------------------|


e||-----0-0---------------|-----0-0-----------------|
B||-2-2-----2---0-----2---|-2-2-----2-2-0-0-0---2---|
G||-----------------2-----|-------------------2-----|
D||---------------------2-|-------------------------|
A||-----------------------|-------------------------|
E||-----------------------|-------------------------|


e||-----0-0-----------------------------------------|
B||-2-2-----2---0-----2--------------------2h3p2----|
G||-----------------2---------2---------------------|
D||---------------------2--4----4-2-----------------|
A||---------------------------------4-2-0-----------|
E||-------------------------------------------------|
Tap to rate this tab
 
# A B C D E F G H I J K L M N O P Q R S T U V W X Y Z