Song name
# A B C D E F G H I J K L M N O P Q R S T U V W X Y Z

The Magic Numbers - Forever Lost tab

Do not get any other tab for this song, because it is DEFFINATELY wrong. This isn't.

Intro

       |-----------------------------|
       |-----------------------------|
       |-----------------------------|
Guitar |-9-----9-----9-----9-----9-9-|
       |-9-----9-----9-----9---9-9-9-|
       |-7-7-7-7-7-7-7-7-7-7-7-7-7-7-| x4

        
       |-----------------------------|
Bass   |-----------------------------|
       |--------2-------2-------2----|
       |--2-2-----2-2-----2-2-----2-2|


Verse

|-0---------------------------0--0-------------|
|-5---------------------------5--4-------------|
|-4---------------------------4--4-------------|
|-2---------------------------2--2-------------|
|-0---------------------------0--0-------------|
|----------------------------------------------|
  Darling...       What you gonna do now...


|-----------0--0-----0--------------0----0-----|
|-----------4--5-----5--------------5----4-----|
|-----------4--4-----4--------------4----4-----|
|-----------2--2-----2--------------2----2-----|
|-----------0--0-----0--------------0----0-----|
|----------------------------------------------|
  Now that you noticed...   It all went wrong...

|0-0-0-0-0-0-0-0-0-0-0-0-0-0-0-0-0-0-0-0-0-0-0-0-0-0-0-0-0-0-0-0-|
|0-0-0-0-0-0-0-0-0-0-0-0-0-0-0-0-4-4-4-4-4-4-4-4-4-4-4-4-4-4-4-4-|
|1-1-1-1-1-1-1-1-1-1-1-1-1-1-1-1-4-4-4-4-4-4-4-4-4-4-4-4-4-4-4-4-|
|2-2-2-2-2-2-2-2-2-2-2-2-2-2-2-2-2-2-2-2-2-2-2-2-2-2-2-2-2-2-2-2-|
|--------------------------------0-0-0-0-0-0-0-0-0-0-0-0-0-0-0-0-|
|----------------------------------------------------------------|
 I've been...          I've been thinking...        That you don't 

|0-0-0-0-0-0-0-0-0-0-0-0-0-0-0-0-0-0-0-0-0-0-0-0-|
|2-2-2-2-2-2-2-2-2-2-2-2-2-2-2-2-4-4-4-4-4-4-4-4-|
|4-4-4-4-4-4-4-4-4-4-4-4-4-4-4-4-4-4-4-4-4-4-4-4-|
|2-2-2-2-2-2-2-2-2-2-2-2-2-2-2-2-2-2-2-2-2-2-2-2-|
|0-0-0-0-0-0-0-0-0-0-0-0-0-0-0-0-0-0-0-0-0-0-0-0-|
|------------------------------------------------|

 Know me...                 Any more...

|------0---------0-----------|
|----4---4---------4---------|
|--4-------4---------4-------|
|----------------------------|
|----------------------------|
|----------------------------|


Chorus

A
Don't 
        B
Let the sun
       G#m
Be the one
    C#m
To change you baby 
A
I
      B
Wanna learn
       G#m
How to lie
   C#m                A
If I'm to know 'cause I 
      B
Wanna Go
          G#m    C#m (let ring)
Where the people go

N.C.    F# (let ring)
'cause I'm

N.C.     Bm (let ring)
Forever lost

on second time, repeat last 2 lines.


(repeat verse - with differant lyrics of course)
(chorus)

Solo-type-thingy

|------0--------0-------0---------0----------0-----------|
|-----------0-------0-----0-----------0----------0-------|
|----8----8---8---8---8---------8---8---8--8---8---------|
|--6--------------------------6--------------------------|
|--------------------------------------------------------|
|--------------------------------------------------------|

|--------0--------------0--------------0--------------0------|
|-------------0--------------0--------------0--------------0-|
|-11--11---11----11--11---11----11--11---11----11--11---11---|
|------------------------------------------------------------|
|------------------------------------------------------------|
|------------------------------------------------------------|

repeat whole thin (solo) twice, then...

|-------------------------------11----11----11----11---------|
|---12--12--12--12--12--12--12----12----12----12----12-------|
|-13--13--13--13--13--13--13--13----13----13----13----13-----|
|------------------------------------------------------------|
|------------------------------------------------------------|
|------------------------------------------------------------|
        Looks like it all..went..wrong...

|------------------------------------------------------------|
|------12----12----12----12----------9--9--9--9--9--9--9--9--|
|----13----13----13----13---13--13---11-11-11-11-11-11-11-11-|
|--13----11----13----11---13--11-----9--9--9--9--9--9--9--9--|
|------------------------------------------------------------|
|------------------------------------------------------------|
 What am I to do..?            What am I to do..?

|------------------------------------------------------------0-----0-----0-0|
|------------------------------------------------------------0-----0-----0-0|
|--13-13-11-11-9-9-8-8-9-9-13-13-9-9-8-8-16-16-16-16-9-9-9-9-8-8-8-8-8-8-8-8|
|---------------------------------------------------------------------------|
|--11-11-9--9--7-7-6-6-7-7-11-11-7-7-6-6-14-14-14-14-7-7-7-7-6-6-6-6-6-6-6-6|
|---------------------------------------------------------------------------|
                           Looks like it all.........went....wrong...

|--4------4------4------4------------------------------------|
|--4------5------4------4------------------------------------|
|--4------4------4------6-----4---4---9-9-9-9-9-9-9-9--------|
|------------------------------------------------------------|
|-------------------------------------7-7-7-7-7-7-7-7--------|
|------------------------------------------------------------|

|---------------------------------------------------|
|---------------------------------------------------|
|--13-13-11-11-9-9-8-8-9-9-13-13-9-9-8-8-16-16-16-16|
|---------------------------------------------------|
|--11-11-9--9--7-7-6-6-7-7-11-11-7-7-6-6-14-14-14-14|
|---------------------------------------------------|
                           Looks like it all...

|----------------------------------------------------------|
|----------------------------------------------------------|
|-18-18-18-18--20-20-20-20-20-20-20-20-20-20-20-20-20-20-20|
|----------------------------------------------------------|
|-16-16-16-16--18-18-18-18-18-18-18-18-18-18-18-18-18-18-18|
|----------------------------------------------------------|
...went...    ...wrong...

|--4------4------4------4--------------0~-----|
|--4------5------4------4--------------0~-----|
|--4------4------4------6-----4---4----6~-----|
|--------------------------------------7~-----|
|---------------------------------------------|
|---------------------------------------------|

N.C. 
Don't let the sun be the one to change you baby

bass; string 4:
5 5 5 5 5 5 5 5 7 7 7 7 7 7 7 7 4 4 4 4 4 4 4 4
I               wanna learn     How to lie       If

bass; string 3:

4   6  7 
I'm to know 

|--------------------------------------------------4~------|
|--------------------------------------------------5~------|
|--------------------------------------------------4~------|
|---6p4--6p4-------6p4--6p4------6p4--6p4----------6~------|
|------------7--4------------6------------6--------4~------|
|------------------------------7------------7--4---4~------|
    'cause I...    wanna go...   where the people go...

N.C.    F#m (let ring)
'cause I'm
        Bm (let ring)
Forever lost  x2

finish by playing first part of verse (x02450/x02440) and end on...

E E F# (let ring)

         ENJOY!
Tap to rate this tab
# A B C D E F G H I J K L M N O P Q R S T U V W X Y Z