Song name
# A B C D E F G H I J K L M N O P Q R S T U V W X Y Z

The Magic Numbers - Love Is Just A Game tab

Intro [0.00]
||------------9h(11)----------------------9h(11)-----------||
||------------------------------------6-4------------------||
||---0-2-4-----------545/7 -77--55--4------------545/7-----|| x 2
||---------2-----------------------------------------------||

verse [0.24]
||---------------------------------------------------------||
||------------------------------------6-4------------------||
||---0-2-4------------------77--55--4------------545/7-----||
||---------2/(14)------------------------------------------||
 = intro without the high notes and the between part 545/7 before the 77554


Prechorus  [0.48] "maybe i'm a fool for walkin in light..."
||---------------------------------------------------------||
||--\4------------44---------------------------------------||
||------4--5--4-----45-------------------------------------||
||---------------------------------------------------------||
 ==> this one seems harder than it is, so listen carefully, she plays the tones so 
with this part only once you must fill that untill the next part. listen closely, you will 
it's kinda correct. The last five goes immediately in the next line!

 [0.59] "i mean not this mistake that you made..."
||---------------------------------------------------------||
||---------------------------------------------------------||
||--55-55-5h44-44-4h55-55-5/7777777777777777---------------||
||----h5------4-------5------------------------------------||

Chorus [1.11]
||------------9h(11)----------------------9h(11)-----------||
||------------------------------------6-4------------------||
||---0-2-4-----------545/7 -77--55--4------------545/7-----|| x 2
||---------2-----------------------------------------------||

Verse  [1.34]
||---------------------------------------------------------||
||------------------------------------6-4------------------||
||---0-2-4------------------77--55--4------------545/7-----||
||---------2/(14)------------------------------------------||

Prechorus  [1.59] "maybe i'm a fool for walkin in light..."
||-----------------6-6-6-----------------------||
||--\4-----------------------------------------||
||------4--5--4---4-4-4-45---------------------||
||---------------------------------------------||
the last 5 goes immediately in the first five in the next line!

 [2.10] "i mean not this mistake that you made..."
||--------------------------------------------||
||--------------------------------------------||
||--55-55-5\44-44-4\22-22--22-22/4------------||
||----h5------4-------2---2--2----------------||

Chorus [2.21]
||------------9h(11)----------------------9h(11)-----------||
||------------------------------------6-4------------------||
||---0-2-4-----------545/7 -77--55--4------------545/7-----|| x 2
||---------2-----------------------------------------------||

Between part [2.45]
||-----------(11)9(11)9--------------------------------------||
||-----------------------(11)9----------6-4------------------||
||---0-2-4--------------------77--55--4-------77\-7----------||
||---------2-------------------------------------4-----------||

[2.57]
||-----------(11)9(11)9------------------------------------------||
||---------------------(11)9-----------h4-----------------22-2/4-||
||---0-2-4-------------------77--55--4----5/7755--44---22--------||
||---------2--------------------------2--------------22----------||
Listen carefully and you'll see it's like this(almost sure at least)
The last four runs over in the next line

Prechorus  [3.16] "maybe i'm a fool for walkin in light..."
||-------------------------------------------------||
||--\4-4\2-2/4-4\2---------------------------------||
||------------------44-455-------------------------||
||-----------------4-------------------------------||
the last 5 goes immediately in the first five in the next line!

 [3.27] "i mean not this mistake that you made..."
||-----------------------------------------------||
||-----------------------------------------------||
||--55-55-5\44-44-4\55-55/777777777777--9-7\-----||
||----h5------4-------5------------------9-------||
This runs immediately over in the verse

Chorus [3.41]
||------------9h(11)----------------------9h(11)-----------||
||------------------------------------6-4------------------||
||---0-2-4-----------545/7 -77--55--4------------545/7-----|| x 2
||---------2-----------------------------------------------||

Outro  [4.04]
||---------------------------------------------------------||
||------------------------------------6-4------------------||
||---0-2-4------------------77--55--4------------545/7-----||
||---------2/(14)------------------------------------------||

       [4.29]
||-----------------------------------------------2------------||
||------------------------------------6-4----2-4---4-2---2----||
||---0-2-4------------------77--55--4------4-----------4---4--||
||---------2/(14)-------------------------------------------5~||

That's it
hope you enjoy playin it, at least as much as i enjoyed tabbin it :)
if you have any comments you can always add me on msn
onderbroekje_maertens@hotmail.com
Tap to rate this tab
# A B C D E F G H I J K L M N O P Q R S T U V W X Y Z