Song name
# A B C D E F G H I J K L M N O P Q R S T U V W X Y Z

The Main Drag - A Jagged Gorgeous Winter tab

this is actually the rest of the song after that short drum solo. I'm not sure if this 
totaly correct but it sounds pretty decent. hope it's good enough for you.

------------------------------------------|
-xxx----19----------17--16--14------------|
-xxx-20----20-21-20-------------15-15~~---|
------------------------------------------|
------------------------------------------|
------------------------------------------|

------------------------------------------|
----19----------17--16--14^-16------------|
-20----20-21-20---------------------------|
------------------------------------------|
------------------------------------------|
------------------------------------------|

-----------------------------------------|
-----------------------------------------|
-----------------------------------------|
----16----14----14-16~~------------------|
-14----14----14--------------------------|
-----------------------------------------|

-------------------------------------------------------      |
-------------------------------------------------------      |
-------------------------------------------------------      |
----16----14----14-16----18-16----14----14-------------      |
-14----14----14-------14-------14----14----14----------      |
-------------------------------------------------------      |
                                                             | x2
-------------------------------------------------------      |
-------------------------------------------------------      |
-------------------------------------------------------      |
----16----14----14-16----18-16----12^^^----------------      |
-14----14----14-------14-------14----------------------      |
-------------------------------------------------------      |

------------------------------------------|
-xxx----19----------17--16--14------------|
-xxx-20----20-21-20-------------15-15~~---|
------------------------------------------|
------------------------------------------|
------------------------------------------|

----------------------------16-----16-----16-----15--|
----19----------17--16--14^----14^----14^----14^-----|
-20----20-21-20--------------------------------------|
-----------------------------------------------------|
-----------------------------------------------------|
-----------------------------------------------------|

----------------------------------------------------|
----------------------------------------------------|
----------------------------------------------------|
-12\0--12--9----------------------------------------|
--------------12--10~~------------------------------|
----------------------------------------------------|
Tap to rate this tab
# A B C D E F G H I J K L M N O P Q R S T U V W X Y Z