Song name
# A B C D E F G H I J K L M N O P Q R S T U V W X Y Z

The Main Drag - A Jagged Gorgeous Winter tab

-------------------------------------------------------------------------------
			     A Jagged Gorgeous Winter - The Main Drag
-------------------------------------------------------------------------------
Tabbed by:K_Mason
Email:green_rogue@hotmail.com
Tuning:Standard

The time indicators are from the Official music video on youtube heres the address 
http://www.youtube.com/watch?v=yuG_jxi37RM .... Also don't forget to read how many 
times to repeat a section it says on the far right.. Enjoy! 
(0:12-0:24) The Main Riff
e|---------------------------------------------------------------------------|2x
B|-----------7-----------7--------------------7------------------------------|
G|---8---9-------8---9----------------8---9-------9---8----------------------|
D|---------------------------9-11-9-----------------------9------------------|
A|---------------------------------------------------------------------------|
E|---------------------------------------------------------------------------|
(0:25-0:30)
e|-----------------------7-6-7-----------------------------------------------|1x
B|-----------7-------------------------------7-------------------------------|
G|---8---9-------8---9----------8----8---9-------9---8-----------------------|
D|------------------------------9------------------------9-------------------|
A|---------------------------------------------------------------------------|
E|---------------------------------------------------------------------------|
(0:32-0:38)
e|-----------------------7-6-7-----------------------------------------------|1x
B|-----------7----------------------------------7----------------------------|
G|---8---9-------8---9----------8---------------8----------------------------|
D|------------------------------9---------------9----------------------------|
A|---------------------------------------------------------------------------|
E|---------------------------------------------------------------------------|
(0:49-0:56)
e|-----------------------11--------------------------------------------------|4x
B|---------------------------------------------------------------------------|
G|-------------------11------------------------------------------------------|
D|-----------13--11----------------------------------------------------------|
A|-------14------------------------------------------------------------------|
E|---12----------------------------------------------------------------------|
(0:56-1:03)
e|---------------------------------------------------------------------------|2x
B|-------12--------12--14----------------------------------------------------|
G|---11--------11----------11-11------14v--14v--11---------------------------|
D|---------------------------------------------------------------------------|
A|---------------------------------------------------------------------------|
E|---------------------------------------------------------------------------|
(1:04-1:09)
e|-----------------------11--------------------------------------------------|4x
B|---------------------------------------------------------------------------|
G|---------------13--11------------------------------------------------------|
D|-------13--11--------------------------------------------------------------|
A|---------------------------------------------------------------------------|
E|---12----------------------------------------------------------------------|
(1:10-1:17)
e|-----------------------11--------------------------------------------------|4x
B|---------------------------------------------------------------------------|
G|---------------13--11------------------------------------------------------|
D|-------13--11--------------------------------------------------------------|
A|---------------------------------------------------------------------------|
E|---11----------------------------------------------------------------------|
(1:17-1:55) pretty sure this is how it goes just strum up & down really fast
e|---------------------------------------------------------------------------|
B|---------------------------------------------------------------------------|
G|---------------------------------------------------------------------------|
D|---------------------------------------------------------------------------|
A|---------------------------------------------------------------------------|
E|-7(48x)--9(6x)--11(10x)--7(16x)--9(6x)--11(10x)--12(16x)--11(6x)--9(10x)---|

e|---------------------------------------------------------------------------|
B|---------------------------------------------------------------------------|
G|---------------------------------------------------------------------------|
D|----------------------------------11(6x)--13(10x)----------11(6x)--13(10x)-|
A|------------------11(10x)--14(16x)------------------14(16x)----------------|
E|--12(16x)--14(6x)----------------------------------------------------------|

e|---------------------------------------------------------------------------|
B|---------------------------------------------------------------------------|
G|-----------------------------11(16x)-13(16x)-16(6x)-15(6x)-11(6x)-13(32x)--|
D|-14(16x)-13(6x)-11(10x)-14(16x)--------------------------------------------|
A|---------------------------------------------------------------------------|
E|---------------------------------------------------------------------------|
(2:03-2:16)
e|---------------------------------------------------------------------------|2x
B|-----------7-----------7--------------------7------------------------------|
G|---8---9-------8---9----------------8---9-------9---8----------------------|
D|---------------------------9-11-9-----------------------9------------------|
A|---------------------------------------------------------------------------|
E|---------------------------------------------------------------------------|
(2:17-2:21)
e|-----------------------7-6-7-----------------------------------------------|1x
B|-----------7-------------------------------7-------------------------------|
G|---8---9-------8---9----------8----8---9-------9---8-----------------------|
D|------------------------------9------------------------9-------------------|
A|---------------------------------------------------------------------------|
E|---------------------------------------------------------------------------|
(2:23-2:28)
e|-----------------------7-6-7-----------------------------------------------|1x
B|-----------7---------------------------------------------------------------|
G|---8---9-------8---9----------8--------------------------------------------|
D|------------------------------9--------------------------------------------|
A|---------------------------------------------------------------------------|
E|---------------------------------------------------------------------------|
(2:45-3:01)
e|-------13xx13------12--11--9---7-------------------------------------------|3x
B|---12--12xx12--12--12--12--11--7-------------------------------------------|
G|---11----------11----------------------------------------------------------|
D|---------------------------------------------------------------------------|
A|---------------------------------------------------------------------------|
E|---------------------------------------------------------------------------|
(3:02-3:05)
e|-------13xx13------12--11--9----11-----------------------------------------|1x
B|---12--12xx12--12--12--12--11---12-----------------------------------------|
G|---11----------11----------------------------------------------------------|
D|---------------------------------------------------------------------------|
A|---------------------------------------------------------------------------|
E|---------------------------------------------------------------------------|
(3:05-3:12) This is the chord they are using at this point just find the rhythm
e|---------------------------------------------------------------------------|
B|---------------------------------------------------------------------------|
G|---13----------------------------------------------------------------------|
D|---13----------------------------------------------------------------------|
A|---11----------------------------------------------------------------------|
E|---------------------------------------------------------------------------|
(3:12-3:14)
e|---------------------------------------------------------------------------|1x
B|---------------------------------------------------------------------------|
G|----------------------16---------------------------------------------------|
D|------16----14-13-----16---------------------------------------------------|
A|---14----14-------14--14---------------------------------------------------|
E|---------------------------------------------------------------------------|
(3:16-3:19)
e|---------------------------------------------------------------------------|1x
B|---------------------------------------------------------------------------|
G|---------------------16----18--16------------------------------------------|
D|------16----14-13--------------------16----14-13---------------------------|
A|---14----14-------14----14--------14----14-------14------------------------|
E|---------------------------------------------------------------------------|
(3:19-3:22)
e|---------------------------------------------------------------------------|1x
B|---------------------------------------------------------------------------|
G|---------------------16----18--16------------------------------------------|
D|------16----14-13----------------------------------------------------------|
A|---14----14-------14----14--------14---16v---------------------------------|
E|---------------------------------------------------------------------------|
(3:29-3:32)
e|---------------------------------------------------------------------------|1x
B|---------------------------------------------------------------------------|
G|---------------------16----18--16------------------------------------------|
D|------16----14-13--------------------16----14-13---------------------------|
A|---14----14-------14----14--------14----14-------14------------------------|
E|---------------------------------------------------------------------------|
(3:32-3:35)
e|---------------------------------------------------------------------------|1x
B|---------------------------------------------------------------------------|
G|---------------------16----18--16------------------------------------------|
D|------16----14-13----------------------------------------------------------|
A|---14----14-------14----14--------14---18v---------------------------------|
E|---------------------------------------------------------------------------|
(3:36-3:39)
e|-------13xx13------12--11--9---7-------------------------------------------|1x
B|---12--12xx12--12--12--12--11--7-------------------------------------------|
G|---11----------11----------------------------------------------------------|
D|---------------------------------------------------------------------------|
A|---------------------------------------------------------------------------|
E|---------------------------------------------------------------------------|
(3:39-3:45)
e|-------13xx13------12--11--------14-------14-------14-------14-------14----|1x
B|---12--12xx12--12--12--12--14b16----14b16----14b16----14b16----14b16-------|
G|---11----------11----------------------------------------------------------|
D|---------------------------------------------------------------------------|
A|---------------------------------------------------------------------------|
E|---------------------------------------------------------------------------|
(3:50-3:52)
e|---------------------------------------------------------------------------|1x
B|---------------------------------------------------------------------------|
G|---11----------------------------------------------------------------------|
D|---------------------------------------------------------------------------|
A|------9--------------------------------------------------------------------|
E|---------11--9--7----------------------------------------------------------|

Thanks for reading please rate :D
Tap to rate this tab
 
# A B C D E F G H I J K L M N O P Q R S T U V W X Y Z