Song name
# A B C D E F G H I J K L M N O P Q R S T U V W X Y Z

The Maine - Girls Do What They Want tab

Help us improve GuitareTab! Take a short survey!
This is my first tab :)
Omg-its-nat@hotmail.com
e-mail me if you wanna chat or something ^^. Or if theres any questions.

Tuning: Standard (eadgbE)

e|-121212--44--55--44--55--7777----------| x4
a|-141414--66--77--66--77--9999----------|
d|---------------------------------------|
g|---------------------------------------|
b|---------------------------------------|
E|---------------------------------------|

e|---------------------------------------| xidk o.0
a|---------------------------------------|
d|---------------------------------------|
g|-4-------------------------------------|
b|---5---5-------------------------------|
E|-----0---------------------------------|

Shes 18 and a beauty queen..
e|-77\-----------------------------------|
a|-99\-----------------------------------|
d|---------------------------------------|
g|---------------------------------------|
b|---------------------------------------|
E|---------------------------------------|

Sorry its not finished. Just happend to figure this out randomly (:
Related for Girls Do What They Want tab