Song name
# A B C D E F G H I J K L M N O P Q R S T U V W X Y Z

The Maine - Undressing The Words tab

Artist: The Maine
Song: Undressing The Words
Album: Old Demo
Tabber: Matt Florio; myspace.com/mattflorio2
Email: shempashland@yahoo.com

Hey, enjoy it!
if you have any questions.. email me!
have fun... listen to the song while playing it helps.

Intro
guitar 1
e----------------|
b----------------|
g----6-----4-----|
d-4--6--1--4-----|
a-4--4--1--2-----|
d-4-----1--------|

guitar 2
e---------------------|
b---------7-6-4-------|
g-------6-------6-3-6-|
d-4-3h4---------------|
a---------------------|
d---------------------|

Verse
same as guitar one above... palm mute

guitar 2
e-66-6--77-7-----|
b-77-7--77-7-----|
g-66-6--66-6-----|
d----------------|
a----------------|
d----------------|

guitar 2 somewhere in background before prechorus
e------6---------|
b--7-----7-------|
g----6-----------|
d----------------|
a----------------|
d----------------|
"youre attentive"

PreChorus
e------------------|
b------------------|
g----4----6--------|
d--4-4--4-6--------|
a--4-2--4-4--------|
d--4----4----------|

Chorus is the same as intro

Bridge
guitar 1 pm
e-----------------|
b-----------------|
g----4-----4------|
d-4--4--4--4------|
a-4--2--4--2------|
d-4-----4---------|
"so tell me now..."

guitar 2
e--------------|
b------7-6-----|
g----6-----6---|
d-3h4----------|
a--------------|
d--------------|

Outro

guitar 1
e-------------------|
b-------------------|
g-------------------|
d-4---4----4----4---|
a-4---4----4----4---|
d-4---4----4----4---|

guitar 2
e----------------------|
b----------7-6-4-------|
g--------6-------6-3-6-|
d--4-3h4---------------|
a----------------------|
d----------------------|
Tap to rate this tab
# A B C D E F G H I J K L M N O P Q R S T U V W X Y Z