Guitaretab - guitar tabs
Song name
# A B C D E F G H I J K L M N O P Q R S T U V W X Y Z

The Maine - Everything I Ask For tab

The Maine  Everything I Ask For
Tabbed by: Mitch

If you have any questions:
Email: mitchsayshello@gmail.com
Myspace: myspace.com/cow_ilunder

Figure out the strumming pattern with video or song
Video: http://www.youtube.com/watch?v=yzo3dwjNrY0
Song:  myspace.com/themaine 

Capo 2nd Fret
Standard Tuning

Intro/Verse
e------------------------------|
G--------1-------3-------------|
B--------0-------0-------------|
D---0h2--2--0h2--2-------------|
A---0h2--3--0h2--3-------------|
E---0-0------------------------|
[ Tab from: http://www.guitaretab.com/t/the-maine/112671.html ]
Pre-Chorus
e------------------------------|
G------3---------3--3----------|
B------0---------0--0----------|
D---2--2---OR----0--2----------|
A---2--3---------2--3----------|
E---0------------3-------------|

Chorus
(has strumming pattern kinda)
e--------x-x-x-x------x-x-x-x------------------|
G--------x-x-x-x------x-x-x-x------------------|
B--------x-x-x-x--5-5-x-x-x-x------------------|
D---2-2--x-x-x-x--5-5-x-x-x-x--5-
				
Related for Everything I Ask For tab