Song name
# A B C D E F G H I J K L M N O P Q R S T U V W X Y Z

The Maine - If I Only Had The Heart tab

This is 100% correct:
This is my first tab and its a great song and fun to play on guitar! 
Let me know if you find any mistakes.
Please rate!



Capo on 4th fret

Intro
e|---0-------0-------0-------0---|
B|-----0-------0-------0-------0-|
G|-------------------------------|
D|-2-----2/4-----4/6-----6/1-----|     x4
A|-------------------------------|
E|-------------------------------|

Verse Pt. 1
e|------------------------------------|
B|------------------------------------|
G|--1-------2-------1-------4---------| x2
D|--2-------2-------2-------4---------|
A|--2-------0-------2-------2---------|
E|--0---------------0-----------------|

Verse Pt. 2
e|--------------------------------------------|
B|--------------------------------------------|
G|--1-1-1-1-----2-2-2-2----1-1-1-1----4-4-4-4-| x2
D|--2-2-2-2-----2-2-2-2----2-2-2-2----4-4-4-4-|
A|--2-2-2-2-----0-0-0-0----2-2-2-2----2-2-2-2-|
E|--0-0-0-0----------------0-0-0-0------------|
    . .         . .        . .        . .

Pre-Chorus
e|------------------------------------|
B|------------------------------------|
G|--6-6-6-6--4-4-4-4--2-2-2-2-2-2-2-2-|
D|--6-6-6-6--4-4-4-4--2-2-2-2-2-2-2-2-|
A|--4-4-4-4--2-2-2-2--0-0-0-0-0-0-0-0-|
E|------------------------------------|

e|-------------------------------|
B|-------------------------------|
G|--6-6-6-6--8-8-8-8--9-9-9-9-9/-|
D|--x-x-x-x--x-x-x-x--x-x-x-x-x/-| slide up
A|--4-4-4-4--6-6-6-6--7-7-7-7-7/-|
E|-------------------------------|

Chorus
e|-------------|
B|-------------|
G|--1--1-1--2~-|
D|--2--2-2--2~-|
A|--2--2-2--0~-|
E|--0--0-0-----|

e|------------------------------------|
B|------------------------------------|
G|--6-6-6-6--4-4-4-4--2-2-2-2-2-2-2-2-|
D|--6-6-6-6--4-4-4-4--2-2-2-2-2-2-2-2-|
A|--4-4-4-4--2-2-2-2--0-0-0-0-0-0-0-0-|
E|------------------------------------|

e|-------------|
B|-------------|
G|--1--1-1--2~-|
D|--2--2-2--2~-|
A|--2--2-2--0~-|
E|--0--0-0-----|

e|------------------------------------|
B|------------------------------------|
G|--6-6-6-6--8-8-8-8--9-9-9-9-9-9-9-9-|
D|--x-x-x-x--x-x-x-x--x-x-x-x-x-x-x-x-|
A|--4-4-4-4--6-6-6-6--7-7-7-7-7-7-7-7-|
E|------------------------------------|

After Chorus
e|------------------------------------|
B|------------------------------------|
G|--1-------2-------1-------4---------| x2
D|--2-------2-------2-------4---------|
A|--2-------0-------2-------2---------|
E|--0---------------0-----------------|

Verse pt 1.
e|------------------------------------|
B|------------------------------------|
G|--1-------2-------1-------4---------| x2
D|--2-------2-------2-------4---------|
A|--2-------0-------2-------2---------|
E|--0---------------0-----------------|

Verse pt 2. -Guitar 1
e|--------------------------------------------|
B|--------------------------------------------|
G|-------4----4h6-4~~----4-4-4-2-2-1-1--------| 
D|--/4-6---6----------6--6-6-6-4-4-2-2--------|
A|--------------------------------------------|
E|--------------------------------------------|
                                                   x2                       
e|--------------------------------------------|
B|--------------------------------------------|
G|-------4----4h6-4~~--4-4-4-4-4-4------------| 
D|--/4-6---6-----------1-1-1-2-2-2------------|
A|--------------------------------------------|
E|--------------------------------------------|

Verse pt. 4 -Guitar 2
e|--------------------------------------------|
B|--------------------------------------------|
G|--1-1-1-1-----2-2-2-2----1-1-1-1----4-4-4-4-| x4
D|--2-2-2-2-----2-2-2-2----2-2-2-2----4-4-4-4-|
A|--2-2-2-2-----0-0-0-0----2-2-2-2----2-2-2-2-|
E|--0-0-0-0----------------0-0-0-0------------|
    . .         . .        . .        . .

Pre-Chorus
e|------------------------------------|
B|------------------------------------|
G|--6-6-6-6--4-4-4-4--2-2-2-2-2-2-2-2-|
D|--6-6-6-6--4-4-4-4--2-2-2-2-2-2-2-2-|
A|--4-4-4-4--2-2-2-2--0-0-0-0-0-0-0-0-|
E|------------------------------------|

e|-------------------------------|
B|-------------------------------|
G|--6-6-6-6--8-8-8-8--9-9-9-9-9/-|
D|--x-x-x-x--x-x-x-x--x-x-x-x-x/-| slide up
A|--4-4-4-4--6-6-6-6--7-7-7-7-7/-|
E|-------------------------------|

Chorus
e|-------------|
B|-------------|
G|--1--1-1--2~-|
D|--2--2-2--2~-|
A|--2--2-2--0~-|
E|--0--0-0-----|

e|------------------------------------|
B|------------------------------------|
G|--6-6-6-6--4-4-4-4--2-2-2-2-2-2-2-2-|
D|--6-6-6-6--4-4-4-4--2-2-2-2-2-2-2-2-|
A|--4-4-4-4--2-2-2-2--0-0-0-0-0-0-0-0-|
E|------------------------------------|

e|-------------|
B|-------------|
G|--1--1-1--2~-|
D|--2--2-2--2~-|
A|--2--2-2--0~-|
E|--0--0-0-----|

e|------------------------------------|
B|------------------------------------|
G|--6-6-6-6--8-8-8-8--9-9-9-9-9-9-9-9-|
D|--x-x-x-x--x-x-x-x--x-x-x-x-x-x-x-x-|
A|--4-4-4-4--6-6-6-6--7-7-7-7-7-7-7-7-|
E|------------------------------------|

After Chorus
e|------------------------------------|
B|------------------------------------|
G|--1-------2-------1-------4---------| x2
D|--2-------2-------2-------4---------|
A|--2-------0-------2-------2---------|
E|--0---------------0-----------------|

Bridge
e|-------------------------------------------------------|
B|-------------------------------------------------------|
G|-2~--6-6-6-6-6-6-6-6--2-2-2-2-2-2-2-2--6-6-6-6-6-6-6-6-|
D|-2~--6-6-6-6-6-6-6-6--2-2-2-2-2-2-2-2--6-6-6-6-6-6-6-6-|  x1
A|-0~--4-4-4-4-4-4-4-4--0-0-0-0-0-0-0-0--4-4-4-4-4-4-4-4-|
E|-------------------------------------------------------|

e|------------------------------------|
B|------------------------------------|
G|---2-2-2-2-2-2-2-2--6-6-6-6-6-6-6-6-|
D|---2-2-2-2-2-2-2-2--6-6-6-6-6-6-6-6-|   x3     (Figure out timing)
A|---0-0-0-0-0-0-0-0--4-4-4-4-4-4-4-4-|
E|------------------------------------|

Chorus
e|-------------|
B|-------------|
G|--1--1-1--2~-|
D|--2--2-2--2~-|
A|--2--2-2--0~-|
E|--0--0-0-----|

e|------------------------------------|
B|------------------------------------|
G|--6-6-6-6--4-4-4-4--2-2-2-2-2-2-2-2-|
D|--6-6-6-6--4-4-4-4--2-2-2-2-2-2-2-2-|
A|--4-4-4-4--2-2-2-2--0-0-0-0-0-0-0-0-|
E|------------------------------------|

e|-------------|
B|-------------|
G|--1--1-1--2~-|
D|--2--2-2--2~-|
A|--2--2-2--0~-|
E|--0--0-0-----|

e|------------------------------------|
B|------------------------------------|
G|--6-6-6-6--8-8-8-8--9-9-9-9-9-9-9-9-|
D|--x-x-x-x--x-x-x-x--x-x-x-x-x-x-x-x-|
A|--4-4-4-4--6-6-6-6--7-7-7-7-7-7-7-7-|
E|------------------------------------|



That's the whole song! :)
Hope you thought it wassssssss goooooood.
here's the lyrics if you're interested in singing too.


I had a dream last night.
Where I woke up too late.
And everything I loved.
I began to hate.

I know I sound repetitive,
Cause I'm repeating myself,
And I'm competitive,
I want you all by yourself.
And that alone is just the problem,
I've got these woes,
And I just can't solve them.
If I could gather up the nerve,
I'd put my feelings into words,
And if I weren't so young, or stupid, or restless,
I might be able to just soon forget this.
Just forget this.

Please just forget me,
When I'm out all alone on the east coast.
And please don't forgive me,
When you're home all alone and you need me most.

Oh if I only had the heart,
To find out exactly who you are,
You know I'd try now.
But it's just fine,
No you can't save me,
It's no fault but mine,
Please just blame me.
If I could gather up the nerve,
I'd put my feelings into words,
And if I weren't so young, or stupid, or restless,
I might be able to just soon forget this.
Just forget this.

If I only had the heart, the nerve, the words, you'd think by now I would have learned
Tap to rate this tab
# A B C D E F G H I J K L M N O P Q R S T U V W X Y Z