Song name
# A B C D E F G H I J K L M N O P Q R S T U V W X Y Z

The Maine - Mr Winter tab

Regular tuning..
Listen to the song for the strumming pattern.

Verse:
e-----------------------------------------|
b-----------------------------------------|
g--999999--4--222222--4--666444-222222----|
D--999999--4--222222--4--666444-222222----|x2
A--777777--2----------2--444222-----------|
E-----------------------------------------|

When you left, She was a wreck...
----------------------------------------|
----------------------------------------|
--11111--4--22222--4--666444-222222-----|
--22222--4--22222--4--666444-222222-----|x2
--22222--2---------2--444222------------|
----------------------------------------|

She says she's alone...
----------------------|
----------------------|
--9--------6--4--2----|
--9--9--7--6--4--2----|
--7--9--7--4--2-------|
-----7--5-------------|

Chorus:
Mr. Winter! Did you miss her...
----------------------------------------|
----------------------------------------|
--11111--4--22222--4--666444-222222-----|
--22222--4--22222--4--666444-222222-----|x2
--22222--2---------2--444222------------|
----------------------------------------|

(Then the verse again and so on..)
Tap to rate this tab
# A B C D E F G H I J K L M N O P Q R S T U V W X Y Z