Song name
# A B C D E F G H I J K L M N O P Q R S T U V W X Y Z

The Maine - Mr Winter Acoustic tab

Hey, first tab.
View this video for strumming and transition help. Just listen to him play. Some muted 
he will play throughout the song, so just play whatever sounds best.

http://www.youtube.com/watch?v=_jSPyygAmO8

Standard Tuning


Intro


e|-x--x--x--x--x--x--x--|
b|-x--x--x--x--x--x--x--|
g|-9--8--6--8--6--4--2--|
d|-9--9--7--9--6--4--2--|
a|-7--9--7--9--4--2--x--|
e|-x--7--5--7--x--x--x--|  x2


Verse


   E  B5 Asus4
e|-x--x--x-----x--x--x--x--|
b|-x--x--x-----x--x--x--x--|
g|-1--4--2-----4--6--4--2--|
d|-2--4--2-----4--6--4--2--|
a|-2--2--x-----2--4--2--x--|
e|-x--x--x-----x--x--x--x--|

When you left, she was a wreck
Cuz she said, you left a mess
But you said that you'd be back home
Didn't wanna see her all alone

And you bet she took your word
Cuz she said you'll never learn
All the things that you put her through
Don't know why she's coming back to you


Pre-Chorus

e|--x--x--x--x--x--x--|
b|--x--x--x--x--x--x--|
g|--9--8--6--6--4--2--|
d|--9--9--7--6--4--2--|
a|--7--9--7--4--2--x--|
e|--x--7--5--x--x--x--|


But she says she's alone
But she knows she's in love


Chorus

   E  B5 Asus4
e|-x--x--x-----x--x--x--x--|
b|-x--x--x-----x--x--x--x--|
g|-1--4--2-----4--6--4--2--|
d|-2--4--2-----4--6--4--2--|
a|-2--2--x-----2--4--2--x--|
e|-x--x--x-----x--x--x--x--|

Mr Winter, did you miss her?
For the 3 months you were gone
Had her waiting all night long

Mr Winter, don't forget her
She'll be waiting all alone
Please just say you'll come back


(repeat Intro)


Verse

e|--x--x--x--x--x--x--|
b|--x--x--x--x--x--x--|
g|--9--8--6--6--4--2--|
d|--9--9--7--6--4--2--|
a|--7--9--7--4--2--x--|
e|--x--7--5--x--x--x--|  x2

And he's cold, but he keeps you warm
Cuz his love still burns for you
And you don't know what's in store
But you both know what is true


Pre-Chorus

e|--x--x--x--x--x--x--x--|
b|--x--x--x--x--x--x--x--|
g|--9--8--6--8--6--4--2--|
d|--9--9--7--9--6--4--2--|
a|--7--9--7--9--4--2--x--|
e|--x--7--5--7--x--x--x--|


But she says she's alone
But she knows she's in love


Chorus

   E  B5 Asus4
e|-x--x--x-----x--x--x--x--|
b|-x--x--x-----x--x--x--x--|
g|-1--4--2-----4--6--4--2--|
d|-2--4--2-----4--6--4--2--|
a|-2--2--x-----2--4--2--x--|
e|-x--x--x-----x--x--x--x--|

Mr Winter, did you miss her?
For the 3 months you were gone
Had her waiting all night long

Mr Winter, don't forget her
She'll be waiting all alone
Please just say you'll come back

x2


Bridge


e|--x--x--x--x--x--x--x--x--x--x--|
b|--x--x--x--x--x--x--x--x--x--x--|
g|--1--2--1--4--4--1--2--1--4--5--|
d|--2--2--2--4--4--2--2--2--4--5--|
a|--2--x--2--2--2--2--x--2--2--3--|
e|--0--x--0--x--x--0--x--0--x--x--|

then

e|--x--x--x--x--x--x--x--x--x--|
b|--x--x--x--x--x--x--x--x--x--|
g|--6--1--4--1--2--1--4--5--6--|
d|--6--2--4--2--2--2--4--5--6--|
a|--4--2--2--2--x--2--2--3--4--|
e|--x--0--x--0--x--0--x--x--x--|

W-|hoa-oh-oh, Whoa-oh-oh, Whoa-oh-oh-oh
W-|hoa-oh-oh, Whoa-oh-oh, Whoa-oh-oh-oh


Verse/Pre-Chorus

e|--x--x--x--x--x--x--x--x--x-~
b|--x--x--x--x--x--x--x--x--x-~
g|--6--1--4--1--2--1--4--5--6-~  repeat
d|--6--2--4--2--2--2--4--5--6-~
a|--4--2--2--2--x--2--2--3--4-~
e|--x--0--x--0--x--0--x--x--x-~

But you said that you'd be back home
Didn't wanna see her all alone

All the things that you put her through
Don't know why she's coming back to you


Chorus


   E  B5 Asus4
e|-x--x--x-----x--x--x--x--|
b|-x--x--x-----x--x--x--x--|
g|-1--4--2-----4--6--4--2--|
d|-2--4--2-----4--6--4--2--|
a|-2--2--x-----2--4--2--x--|
e|-x--x--x-----x--x--x--x--|

Mr Winter, did you miss her?
For the 3 months you were gone
Had her waiting all night long

Mr Winter, don't forget her
She'll be waiting all alone
Please just say you'll come back -

x2


End


   E
e|-x--|
b|-x--|
g|-1--|
d|-2--|
a|-2--|
e|-0--|

- home


Thanks, hope this helps.
Tap to rate this tab
# A B C D E F G H I J K L M N O P Q R S T U V W X Y Z