Song name
# A B C D E F G H I J K L M N O P Q R S T U V W X Y Z

The Maine - The Way We Talk Acoustic tab

Help us improve GuitareTab! Take a short survey!
-------------------------------------------------------------------------------
			     The Way We Talk  The Maine
----------------------------------------------------------------------------
Tabbed by: Bo Martinez
Email: airin_2008@yahoo.com

Tuning: Standard EADGbe

This song is amazing! This is the acoustic version as they play it in the Hurley studio.
is a really easy song to play. The chords look like theyre a mess but just look at
carefully and you should get it in no time. Please comment!
Intro
e|---------------------------------------------------------------|
B|--3-3-3-3-3-3-3-3-3-3-3-3-3-3--|--3-3-3-3-3-3-3-3-3-3-3-3-3-3--|
G|------0-0-0-0-0-2-2-2-0-2-2-2--|------0-0-0-0-0-2-2-0-2---0----|
D|------0-2-2-2-0-2-2-2-0-0-0-0--|------0-2-2-2-0-2-2-0-0---0-2--|
A|--2-2-0-3-3-3-0-2-2-2-0-0-0-0--|--2-2-0-3-3-3-0-2-2-0-0-2-0-3--|
E|--3-3-0-------0-2-2-2-0-0-0-0--|--3-3-0-------0-2-2-0-0-3-0----|

Oh shes fresh to death, shell be the death of. . .
e|---------------------------------------------------------------|
B|--3-3-3-3-3-3-3-3-3-3-3-3-3-3--|--3-3-3-3-3-3-3-3-3-3-3-3-3-3--|
G|------0-------0-2-2-2-0-2-2-2--|------0-------0-2-2-0-2---0----|
D|------0-2-2-2-0-2-2-2-0-0-0-0--|------0-2-2-2-0-2-2-0-0---0-2--| (2X)
A|--2-2-0-3-3-3-0-2-2-2-0-0-0-0--|--2-2-0-3-3-3-0-2-2-0-0-2-0-3--|
E|--3-3-0-------0-2-2-2-0-0-0-0--|--3-3-0-------0-2-2-0-0-3-0----|

Play intro Riff Twice

Verse (just strum this chord along to the rhythm and pattern of the song tempo)

Oh cute face, slim waist shes got him in a
e|------|
B|--3---|
G|--4---|
D|--5---|
A|--5---|
E|------|

Craze yeah I think hes going crazy
e|-------------|
B|-3-3-3-3~~---|
G|-2-0-0-2~~---|
D|-2-2-2-0~~---| (2X)
A|-2-3-3-0~~---|
E|-2-----0~~---|

She speaks and it makes me grind my teeth
e|------|
B|--3---|
G|--4---|
D|--5---|
A|--5---|
E|------|

Yet he still thinks shes amazing
e|-------------|
B|-3-3-3-3~~---|
G|-2-0-0-2~~---|
D|-2-2-2-0~~---| (2X)
A|-2-3-3-0~~---|
E|-2-----0~~---|

Shes been playing games, ever
e|------|
B|--3---|
G|--4---|
D|--5---|
A|--5---|
E|------|

Since 98
e|-------------|
B|-3-3-3-3~~---|
G|-2-0-0-2~~---|
D|-2-2-2-0~~---| (2X)
A|-2-3-3-0~~---|
E|-2-----0~~---|

Oh shallow is as shallow does yeah
e|------|
B|--3---|
G|--4---|
D|--5---|
A|--5---|
E|------|

Some people never change
e|-------------|
B|-3-3-3-3~~---|
G|-2-0-0-2~~---|
D|-2-2-2-0~~---| (2X)
A|-2-3-3-0~~---|
E|-2-----0~~---|

Pre-Chorus (you can let the first chord ring out~~ or strum it)
And shes so fine she thinks shes so damn fine she might be fine but she aint worth a
of your time.
e|--0-0~~---------------|
B|--3-3~~--3333/-7777---|
G|--0-0~~--2222/-5555---|
D|--2-2~~--2222/-5555---| (4X)
A|--3-3~~--2222/-5555---|
E|---------2222/-5555---|
Then just slide from the fifth fret back towards the capo to transition to the chorus.

Chorus
Youre as fake as the moans you make. And youre as weak as the hearts you break.
e|---------------------------------------------------------------|
B|--3-3-3-3-3-3-3-3-3-3-3-3-3-3--|--3-3-3-3-3-3-3-3-3-3-3-3-3-3--|
G|------0-0-0-0-0-2-2-2-0-2-2-2--|------0-0-0-0-0-2-2-0-2---0----|
D|------0-2-2-2-0-2-2-2-0-0-0-0--|------0-2-2-2-0-2-2-0-0---0-2--|
A|--2-2-0-3-3-3-0-2-2-2-0-0-0-0--|--2-2-0-3-3-3-0-2-2-0-0-2-0-3--|
E|--3-3-0-------0-2-2-2-0-0-0-0--|--3-3-0-------0-2-2-0-0-3-0----|

Youre as fake as the moans you make so just give us, give us a little break.
e|---------------------------------------------------------------|
B|--3-3-3-3-3-3-3-3-3-3-3-3-3-3--|--3-3-3-3-3-3-3-3-3-3-3-3-3-3--|
G|------0-------0-2-2-2-0-2-2-2--|------0-------0-2-2-0-2---0----|
D|------0-2-2-2-0-2-2-2-0-0-0-0--|------0-2-2-2-0-2-2-0-0---0-2--|
A|--2-2-0-3-3-3-0-2-2-2-0-0-0-0--|--2-2-0-3-3-3-0-2-2-0-0-2-0-3--|
E|--3-3-0-------0-2-2-2-0-0-0-0--|--3-3-0-------0-2-2-0-0-3-0----|


Pre-Verse

Come on and give me a break
e|--------------------------|
B|--333/-555/-777/-8888-----|
G|-----/----/----/----------|
D|-----/----/----/----------| (2X)
A|--222/-333/-555/-7777-----|
E---------------------------|

This is pretty much the entire song. This song can be played with two guitar but I only
it for one. The second guitar just plays basically the same thing but let certain chords
out or use downstrokes only. As for the breakdown part before the last few choruses, 
use the Pre-verse notes starting with the 3rd and 5th fret held notes to begin with.
questions just email me and let me know what you think!


| /  slide up
| \  slide down
| h  hammer-on
| p  pull-off
| ~  vibrato
| +  harmonic
| x  Mute note
============================================================================
Related for The Way We Talk Acoustic tab