Song name
# A B C D E F G H I J K L M N O P Q R S T U V W X Y Z

The Maine - Life Like This tab

Hi this is my first tab so please comment and tell me how i did. I know its not 100% 
and honestly i don't think i got all the guitars in the song,
but i tabbed out what i heard and it should mostly be correct. enjoy!!

Song: Life Like This
Artist: The Maine

Intro x2
E|-------------------------------------------------------|
A|-------------------------------------------------------|
D|-------------------------------------------------------|
G|-----------------6---4---------------------------------|
B|--5---4------------9---7/9\7---------------------------|
E|----7---977--------------------------------------------|

Verse x2
E|------------------------------------------------------------------|
A|---------------------------------2-4-2-2222-----------------------|
D|---------------------------------4-6-2-2222-----------------------|
G|---------------------------------4-6-2-2222-----------------------|
B|------2200-----22000----2200--------------------------------------|
E|---000------000-------00------------------------------------------|
   PM---------------------------------------------------------------|

E|------------------|           E|------------------|
A|------------------|           A|------------------|
D|------------------|           D|------------------|
G|------------------| x3 then   G|------------------|
B|--5/7-9-7/9-7-5---|           B|--5/7\5-4---------|
E|------------------|           E|------------------|

Verse continued x2
E|------------------------------------------------------------------|
A|---------------------------------2-4-2-2222-----------------------|
D|---------------------------------4-6-2-2222-----------------------|
G|---------------------------------4-6-2-2222-----------------------|
B|------2200-----22000----2200--------------------------------------|
E|---000------000-------00------------------------------------------|
   PM---------------------------------------------------------------|

Pre-Chorus
E|-------------------------------------------------------|
A|-----2--4--2-------------------------------------------|
D|--2--2--6--4-------------------------------------------|
G|--2--1--6--4-------------------------------------------|
B|--2----------------------------------------------------|
E|-------------------------------------------------------|

Riff at the end of pre-chorus (after he sings "just wont work because!")
E|--------------------------|
A|-7/9-7-5-5-5\4/5\4/5------|
D|--------------------------|
G|--------------------------|
B|--------------------------|
E|--------------------------|

Chorus x3                  then....
E|------------------|      E|-----------------------|
A|--2-22--22--------|      A|--4-44---22-2222-------|
D|--2-22--44--22----| x3   D|--6-66---44-4444-------|
G|--1-11--44--22----|      G|--6-66---44-4444-------|
B|------------22----|      B|-----------------------|
E|------------------|      E|-----------------------|

after chorus
E|-------------------------------------------------------|
A|-------------------------------------------------------|
D|-------------------------------------------------------|
G|-----------------6---4---------------------------------|
B|--5---4------------9-----------------------------------|
E|----7---977--------------------------------------------|

Second Verse x2
E|---------------------------------------------------------|
A|---------------------------------2-4-2-2222--------------|
D|---------------------------------4-6-2-2222--------------|
G|---------------------------------4-6-2-2222--------------|
B|------2200-----22000----2200-----------------------------|
E|---000------000-------00---------------------------------|
   PM------------------------------------------------------|

Pre-Chorus
E|-------------------------------------------------------|
A|-----2--4--2-------------------------------------------|
D|--2--2--6--4-------------------------------------------|
G|--2--1--6--4-------------------------------------------|
B|--2----------------------------------------------------|
E|-------------------------------------------------------|

Chorus x3                  then....
E|------------------|      E|-----------------------|
A|--2-22--22--------|      A|--4-44---22-2222-------|
D|--2-22--44--22----| x3   D|--6-66---44-4444-------|
G|--1-11--44--22----|      G|--6-66---44-4444-------|
B|------------22----|      B|-----------------------|
E|------------------|      E|-----------------------|

Bridge x4 (the strumming pattern isn't hard to figure out)
E|--------------------------------------------------|
A|--4--2--------------2222222222--------------------|
D|--6--2--2222222222--4444444444--------------------|
G|--6--1--2222222222--4444444444--------------------|
B|--------2222222222--------------------------------|
E|--------------------------------------------------|

Chorus x3
E|------------------|
A|--2-22--22--------|
D|--2-22--44--22----|
G|--1-11--44--22----|
B|------------22----|
E|------------------|

**At this last chorus there are two guitars going. You can play either the chords or the 
part below.**

Chorus x3
E|------------------|           E|-----------------------|
A|------------------|           A|-----------------------|
D|------------------|           D|-----------------------|
G|------------------| x3 then   G|-----------------------|
B|--5/7-9-7/9-7-5---|           B|--5/7\5-4--------------|
E|------------------|           E|-----------------------|

At about 3:03 instead of sliding from 7 to 9 he slides from 7 to 12.
E|-------------------|
A|-------------------|
D|-------------------|
G|-------------------|
B|--5/7-9-7/12-7-5---|
E|-------------------|

Chorus x3
E|------------------|           E|-----------------------|
A|--2-22--22--------|           A|--4-44---22-2222-------|
D|--2-22--44--22----| x3 then   D|--6-66---44-4444-------|
G|--1-11--44--22----|           G|--6-66---44-4444-------|
B|------------22----|           B|-----------------------|
E|------------------|           E|-----------------------|

Outtro (i think thats what its called)
E|----------------------------------|
A|----------------------------------|
D|----------------------------------|
G|----------------------------------|
B|------2200-----220000-------------|
E|---000------000-------------------|
   PM-------------------------------|

and thats it!! hope you liked it:)
Tap to rate this tab
 
# A B C D E F G H I J K L M N O P Q R S T U V W X Y Z