Song name
# A B C D E F G H I J K L M N O P Q R S T U V W X Y Z

The Maine - Into Your Arms Acoustic tab

Standard tuning
Capo 3rd

Intro
e|------------------------------------------------|
b|------------------------------------------------|
G|---11111111---22222222---6666---4444---22222222-| x2
D|---22222222---22222222---6666---4444---22222222-|
A|---22222222--------------4444---2222------------|
E|------------------------------------------------|


Verse
e|---xx-----xx-----xx-----xx---|
b|---xx-----xx-----xx-----xx---|
G|---xx-6---xx-2---xx-1---xx-4-|  x4
D|---xx-6---xx-2---xx-2---xx-4-|
A|---xx-4---xx-----xx-2---xx-2-|
E|---xx-----xx-----xx-----xx---|
The fourth time you play the verse, strum once on the last chord

e|-----------------------------|
b|-----------------------------|
G|---6666---2222---1111---4444-| x3
D|---6666---2222---2222---4444-|
A|---4444----------2222---2222-|
E|-----------------------------|

e|------------------------|
b|------------------------|
G|---22222222222222222222-|
D|---22222222222222222222-|
A|------------------------|
E|------------------------|

Chorus
e|------------------------------------------------|
b|------------------------------------------------|
G|---11111111---22222222---6666---4444---22222222-| x3
D|---22222222---22222222---6666---4444---22222222-|
A|---22222222--------------4444---2222------------|
E|------------------------------------------------|
Third time, strum once last chord.

Verse
e|---xx-----xx-----xx-----xx---|
b|---xx-----xx-----xx-----xx---|
G|---xx-6---xx-2---xx-1---xx-4-|  x2
D|---xx-6---xx-2---xx-2---xx-4-|
A|---xx-4---xx-----xx-2---xx-2-|
E|---xx-----xx-----xx-----xx---|
Second time, strum twice last chord

e|-----------------------------|
b|-----------------------------|
G|---6666---2222---1111---4444-| x1
D|---6666---2222---2222---4444-|
A|---4444----------2222---2222-|
E|-----------------------------|

e|------------------------|
b|------------------------|
G|---22222222222222222222-|
D|---22222222222222222222-|
A|------------------------|
E|------------------------|

Chorus
e|------------------------------------------------|
b|------------------------------------------------|
G|---11111111---22222222---6666---4444---22222222-| x3
D|---22222222---22222222---6666---4444---22222222-|
A|---22222222--------------4444---2222------------|
E|------------------------------------------------|

e|------------|
b|------------|
G|---44444444-|
D|---44444444-|
A|---22222222-|
E|------------|

Bridge
Mute with strum hand between each chord for bridge
e|------------------------|
b|------------------------|
G|---22---11---44444444---| x2
D|---22---22---44444444---|
A|--------22---22222222---|
E|------------------------|

e|---------------------|
b|---------------------|
G|---22---11---444/666-| x2
D|---22---22---444/666-|
A|--------22---222/444-|
E|---------------------|

e|------------------------|
b|------------------------|
G|---22---11---44444444---|
D|---22---22---44444444---|
A|--------22---22222222---|
E|------------------------|

Zeee ending.
e|-----------------------------------------|
b|-----------------------------------------|
G|---11111111---22222222---6666---4444---2-|
D|---22222222---22222222---6666---4444---2-|
A|---22222222--------------4444---2222-----|
E|-----------------------------------------|

e|------------------------------------------------|
b|------------------------------------------------|
G|---11111111---22222222---6666---4444---22222222-| x3
D|---22222222---22222222---6666---4444---22222222-|
A|---22222222--------------4444---2222------------|
E|------------------------------------------------|

e|-----------------------------------|
b|-----------------------------------|
G|---11111111---22222222---6---4---2-|
D|---22222222---22222222---6---4---2-|
A|---22222222---22222222---4---2-----|
E|-----------------------------------|


Hope you enjoyed. This probably isn't 100% accurate, but its the way i play it, and i 
it sounds pretty good. :)
Tap to rate this tab
# A B C D E F G H I J K L M N O P Q R S T U V W X Y Z