Song name
# A B C D E F G H I J K L M N O P Q R S T U V W X Y Z

The Maine - Time To Go tab

----------------------------------------------------------------------------
			     Time To Go - The Maine
----------------------------------------------------------------------------
Tabbed by: McJizzle

Tuning: Standard. Capo 2

Intro
e|-----0---0-------0---0-------0---0----------0---0------------------|
B|-------2-----------2-----------2--------------2--------------------|
G|--2~~---------------------------------0h1~~------------------------|
D|-------------0~~---------4~~---------------------------------------|x2
A|-------------------------------------------------------------------|
E|-------------------------------------------------------------------|


Chords Used:
Verse
     A    F#m    E
e|---0-----2-----0--------|
B|---2-----2-----0--------|
G|---2-----2-----1--------|
D|---2-----4-----2--------|
A|---0-----4-----2--------|
E|---------2-----0--------|

Prechorus (cause you've got your plans..)
    F#m    A      E
e|---2-----0------0--------|
B|---2-----2------0--------|
G|---2-----2------1--------|
D|---4-----2------2--------|
A|---4-----0------2--------|
E|---2------------0--------|

Chorus
     A    D    F#m    E
e|---0----2-----2-----0--------|
B|---2----3-----2-----0--------|
G|---2----2-----2-----1--------|
D|---2----0-----4-----2--------|
A|---0----------4-----2--------|
E|--------------2-----0--------|

************************************

| /   slide up
| \   slide down
| h   hammer-on
| p   pull-off
| ~   vibrato
| +   harmonic
| x   Mute note
| b   Bend
| pb  Pre-bend
| br  Bend release
| pbr Pre-bend release
| brb Bend release bend

************************************

************************************

| /   slide up
| \   slide down
| h   hammer-on
| p   pull-off
| ~   vibrato
| +   harmonic
| x   Mute note
| b   Bend
| pb  Pre-bend
| br  Bend release
| pbr Pre-bend release
| brb Bend release bend

************************************
Tap to rate this tab
 
# A B C D E F G H I J K L M N O P Q R S T U V W X Y Z