The Maine - Inside Of You tab

                  Inside Of You
                  by: The Maine
                  Tabbed by:iamblue035
*This is my first tab so please spare me the harshness. :)
If you have any questions just message me in my youtube channel:
Username:iamblue035 or in here! 
Watch my cover video here: http://www.youtube.com/watch?v=4QEB9aIrQoY

Tuning: Standard

Intro:
E--------------------------------|
B--------------------------------|
G---2---2---2---2---2---2---2---2|  [2x]
D-0---0---0---0---4---4---2---2--|
A--------------------------------|
E--------------------------------|

Verse 1:
E--------------------------------|
B--------------------------------|
G---2---2---2---2---2---2---2---2|  [3x]
D-0---0---0---0---4---4---2---2--|
A--------------------------------|
E--------------------------------|

E--------------------------------|
B--------------------------------|
G---2---2---2---2---2---2---2---2|
D-0---0---0---0---2---2---2---2--|
A--------------------------------|
E--------------------------------|

(Repeat this for the whole Verse 1)

Chorus:
E-------------------|
B-------------------|
G------777-2222-111-| [2x]
D-44-6-777-2222-222-|
A-44-6-555------222-|
E-22-4--------------|

E-----------------|
B-3333------------|
G-2222222-2222111-|
D-----222-4444222-|
A---------4444222-|
E-----------------|

(Intro)

Verse 2:
 
  ***************** (palm mute)
E------------------|     
B-33333333---------|
G-22222222-22221111| [3x] 
D----------44442222|
A----------44442222|
E------------------|

  ****************
E------------------|
B-33333333---------|
G-2222222211111111-|
D---------22222222-|
A---------22222222-|
E------------------|

"So don't say that you just wanna run away"

E---------------|         |------------------|
B-3-------------|         |-33333333---------|
G-2-222-222-1111| [Repeat]|-2222222211111111-|
D---222-444-2222|         |---------22222222-|
A-------444-2222|         |---------22222222-|
E---------------|         |------------------|

(Chorus)

Bridge:

E------------------|
B------------------|
G-22222222222222222|
D-22222222222222222|
A------------------|
E------------------|

E---------------|         |------------------|
B-3-------------|         |-33333333---------|
G-2-222-222-1111| [Repeat]|-2222222211111111-|
D---222-444-2222|         |---------22222222-|
A-------444-2222|         |---------22222222-|
E---------------|         |------------------|

"I'm on a trip, I can't get off, can't get over"

E---------------|         |------------------|
B-3-------------|         |-33333333---------|
G-2-222-222-1111| [Repeat]|-2222222211111111-|
D---222-444-2222|         |---------22222222-|
A-------444-2222|         |---------22222222-|
E---------------|         |------------------|

(Chorus)

E--------------------------------|
B--------------------------------|
G---2---2---2---2---2---2---2---2|  
D-0---0---0---0---4---4---2---2--|
A--------------------------------|
E--------------------------------|

------------------------------------THE END----------------------------------
Tap to rate this tab
 
# A B C D E F G H I J K L M N O P Q R S T U V W X Y Z