Song name
# A B C D E F G H I J K L M N O P Q R S T U V W X Y Z

The Maine - Inside Of You Acoustic tab

Tabbed by Dave Slayton:
Song: Inside Of You (acoustic)
Artist: The Maine
Ok I haven't found any correct tabs on the "Inside of You" acoustic version 
by The Maine, so I thought I'd do it myself. I guarantee this is 100% correct, but 
you need to figure the strumming patterns and chord changes out on you own. Its 
not hard at all dont worry.
This song is off their album "Black and White" soon to be released. 
This album will be THE ALBUM of Summer 2010!
Please rate and comment:)
If you have any questions just email me at davidslytn@yahoo.com

Intro:

E--------------------------------|
B--------------------------------|
G---2---2---2---2---2---2---2---2|  [2x]
D-0---0---0---0---4---4---2---2--|
A--------------------------------|
E--------------------------------|

Verse 1:
E--------------------------------|
B--------------------------------|
G---2---2---2---2---2---2---2---2|  [3x]
D-0---0---0---0---4---4---2---2--|
A--------------------------------|
E--------------------------------|

E--------------------------------|
B--------------------------------|
G---2---2---2---2---2---2---2---2|
D-0---0---0---0---2---2---2---2--|
A--------------------------------|
E--------------------------------|
Verse continued:
"You're 21, I see your eyes you're barely..."
E--X------0---------------0------|
B--3------0---------------0------|
G--2------2---------------1------|      Play 3 Times
D--0------4---------------2------|
A--0------4---------------2------|
E--0------0---------------0------|

"Pre Chorus":              Then you said....
E--X-------------0---------------|
B--3-------------0---------------|
G--2-------------1---------------|
D--0-------------2---------------|
A--0-------------2---------------|
E--0-------------0---------------|

Chorus:
"Whoooaaaaooooaaaooohh Im never gonna be inside of you..."
E--0----0-----X-------------------0---------0-|
B--0----0-----3-------------------0---------0-|
G--2----1-----2-------------------2---------1-|          Play 2 Times
D--4----2-----0-------------------2---------2-|
A--4----2-----0-------------------0---------2-|
E--0----0-----0-------------------0---------0-|

"I know Im gonna fall... And you'll be waiting for it all."
E--X----------0--------------0---------0--|
B--3----------0--------------0---------0--|
G--2----------1--------------2---------1--|
D--0----------2--------------4---------2--|           Play 2 Times
A--0----------2--------------4---------2--|
E--0----------0--------------0---------0--|

Thats pretty much all it is. Remember that you need to figure
 the strumming patterns and chord changes out for yourself. 
Email me if you have any questions
Tap to rate this tab
 
# A B C D E F G H I J K L M N O P Q R S T U V W X Y Z