The Maine - Right Girl chords

Highlighted       Show chord diagrams
Intro: G D A Bm  A

E----------------5--------------5-------------------------------------|
B---------5~7----7-----5~7-----7--------------------------------------|
G---7--7-------------7------------------------------------------------|
D---------------------------------------------------------------------|
A---------------------------------------------------------------------|
E---------------------------------------------------------------------|

E-----5~7~5-----------------------------------------------------------|
B---------------7-----5~7~5-------------------------------------------|
G--------------------------------7------------------------------------|
D---------------------------------------------------------------------|
A---------------------------------------------------------------------|
E---------------------------------------------------------------------|

Verso: G D A Bm
Got caught, running up a tab, couldnít drive home so I had to share a cab
Introduced herself, by her last name, the kinda girl you steal from the football team
Brought up, a silver spoon mess, always trying to tear off her Catholic dress,
Told me, sheís over this place, needs to get the Mid-west wind in her face

Pre-refrao:
Bm G
And the alcohol, made itís way down,
Bm G A
she was the last thing that I saw last night before I hit the ground

Refrao: G D A Bm A
Oh God I did the wrong thing, to the Right girl,
My mind was only in it for a minute
Had a bad fling, with a good girl, I was stupid and dumb, not giving a ó-
The blank stare, at the window, if I could just sober up, if I could just admit
I did the wrong thing, to the Right girl, it was your world baby and I just lived in it

Verso: G D A B
Iíve never been the best with my mouth, try to say smart but the dumb comes out
Maybe Iím shy, I drive an old car, maybe Iím amazed that I got this far

Pre-refrao:
Bm G
When I got my stand byís waiting on the line,
Bm G A
but the hardest part is knowing That it wonít be her this time

Refrao: G D A Bm A
Oh God I did the wrong thing, to the Right girl,
My mind was only in it for a minute
Had a bad fling, with a good girl, I was stupid and dumb, not giving a ó-
The blank stare, at the window, if I could just sober up, if I could just admit
I did the wrong thing, to the Right girl, it was your world baby and I just lived in it

G D A Bm A
Please, Please, baby come back (x4)

Ponte
G                                D
She came back, thought she had it all planned out
A                                    Bm
Went to marry some guy she had talked about
G D A Bm
A tear in her dress, and a tear in her eye, and just like that her whole life flashed by
Bm                                    G
She said you wonít remember what you said last night,
B                                     G                 A
If you ever needed someone To pick up the pieces in your life

Refrao: G D A Bm A
Oh God I did the wrong thing, to the Right girl,
My mind was only in it for a minute
Had a bad fling, with a good girl, I was stupid and dumb, not giving a ó-
The blank stare, at the window, if I could just sober up, if I could just admit
I did the wrong thing, to the Right girl, it was your world baby and I just lived in it

G D A Bm A
Please, Please, baby come back (x4)
Tap to rate this tab
 
# A B C D E F G H I J K L M N O P Q R S T U V W X Y Z