Song name
# A B C D E F G H I J K L M N O P Q R S T U V W X Y Z

The Maine - Every Road tab

Capo on fret 3

B- x244xx
A- x02200
G- 320033
D- xx0230
Em- 022xxx

intro
B A G D A

(tab is not relevant to the capo)
e|--------------------------------------------------|
B|-----------13---------------------13-15-----------|
G|--10-12/14----12-12-10---10-12/14------14/15\14---|
D|--------------------------------------------------|
A|--------------------------------------------------|
E|--------------------------------------------------|

e|---------------------------------------------------------|
B|-----------13--------------------------------------------|
G|--10-12/14----12-12-10--------10-------12-12/14-12-10----|
D|------------------------10/12---10-10--------------------|
A|---------------------------------------------------------|
E|---------------------------------------------------------|

VERSE
oh it's safe to say i knew...  x3
D G B A

so walk back home......
Em G Em A

CHORUS
on every road we cross alone.... x3
B A G D A  x3

the luck ones...
Em G A


VERSE
(tab is not relevant to the capo) same chords as verse
e|--------------------------------------------------------|
B|-----------13-------------------------------------------|
G|--10-12/14----12-12-10--------10-------12-12/14-12-10---|
D|------------------------10/12----10-10------------------|
A|--------------------------------------------------------|
E|--------------------------------------------------------|

yeah it's safe to say i knew.... x3
D G B A

so walk back home...........
Em G Em A

CHORUS
on every road we cross alone........  x3
B A G D A

cause we're the lucky ones......
Em G A

D

SOLO
B A G D A

(not relevant to capo)
e|-----------------------------------------|
B|--------------------------------13-------|
G|--10-10-12-12/14-14--14-12-10-10--14-----|
D|-----------------------------------------|
A|-----------------------------------------|
E|-----------------------------------------|

e|------------------------------------------|
B|------------------------------------------|
G|--10-10-12-12/14-14--14-12-10-10----------|
D|---------------------------------12-14----|
A|------------------------------------------|
E|------------------------------------------|

e|----------------------------13------------------------------------------|
B|--------------------13-13/15--15-13-------13------13-----13-------------|
G|--10-10-12-12/14-14------------------13/14---13/14--13/14---14\12-10-10-|
D|------------------------------------------------------------------------|
A|------------------------------------------------------------------------|
E|------------------------------------------------------------------------|

PRE-CHORUS
so walk back home.........
Em G Em A

CHORUS
on every road we cross alone......
B A G D

the lucky ones....
Em G A

LAST CHORUS
on every road we cross alone........
B A G D A

the lucky ones....
Em G A

e|-------------------------------------------------|
B|-----------13---------------------13-15----------|
G|--10-12/14----12-12-10---10-12/14------14/15\14--|
D|-------------------------------------------------|
A|-------------------------------------------------|
E|-------------------------------------------------|

e|-------------------------------------------------------|
B|-----------13------------------------------------------|
G|--10-12/14----12-12-10--------10-------12-12/14-12-10--|
D|-----------------------10/12----10-10------------------|
A|-------------------------------------------------------|
E|-------------------------------------------------------|

finish on D
Tap to rate this tab
 
# A B C D E F G H I J K L M N O P Q R S T U V W X Y Z