Song name
# A B C D E F G H I J K L M N O P Q R S T U V W X Y Z

The Maine - Inside Of You Acoustic tab

Tabbed this by ear. Hope you like It :]

----------------------------------------------------------------------------
		Inside Of You(Acoustic) - The Maine
----------------------------------------------------------------------------
Tabbed by: Scott 
Email: nace112@yahoo.com

Tuning: Standard
 Verse 1:(I'm on a trip, I can't get off, Can't get over.....)
e|-----3------3------3------|
B|-----3------3------3------|
G|-----0------0------2------|
D|-----2------2------0------|
A|-----3------2------0------|
E|-----0------0------2------|
 
 (Right Before "Your 21")
e|----3----3----|
B|----3----3----|
G|----0----2----|
D|----2----0----|
A|----3----0----|
E|----0----2----|
  
 Verse 2:(You're 21, I see your eyes, you're barely sober)
e|-----3------3------3------|
B|-----3------3------3------|
G|-----0------0------2------|
D|-----2------2------0------|
A|-----3------2------0------|
E|-----0------0------2------|
 
(Right Before "Then you said")
e|----3----3----|
B|----3----3----|
G|----0----2----|
D|----2----0----|
A|----3----0----|
E|----0----2----|
  
 Chorus:(Then you said, Noooowhoahhhh, im never gonna be inside of you..)
e|-----3-----3-----3-----3-----3-----|
B|-----3-----3-----3-----3-----3-----|
G|-----0-----2-----0-----0-----2-----|
D|-----2-----0-----2-----0-----0-----|
A|-----2-----0-----3-----2-----0-----|
E|-----0-----2-----0-----3-----2-----|

 (Because, i know im gonna fall...)
e|-----3-----3-----3-----3------|
B|-----3-----3-----3-----3------|
G|-----0-----0-----0-----2------|
D|-----2-----0-----2-----0------|
A|-----3-----2-----2-----0------|
E|-----0-----3-----0-----2------|
 
(Because, I know, I know, I know i cant get inside of you..)
e|-----3-----3-----3-----3-----|
B|-----3-----3-----3-----3-----|
G|-----0-----0-----2-----2-----|
D|-----2-----0-----0-----0-----|
A|-----3-----2-----0-----0-----|
E|-----0-----3-----2-----2-----|

Verse 3: (This fragile game, its like a train thats headed nowhere...)
e|-----3-----3-----3------|
B|-----3-----3-----3------|
G|-----0-----0-----2------|
D|-----2-----2-----0------|
A|-----3-----2-----0------|
E|-----0-----0-----2------|

(Right after "We're getting closer")
e|----3----3----|
B|----3----3----|
G|----0----2----|
D|----2----0----|
A|----3----0----|
E|----0----2----|
 
 (So don't say that you just want to run away....)
e|-----3-----3-----3------|
B|-----3-----3-----3------|
G|-----0-----0-----2------|
D|-----2-----2-----0------|
A|-----3-----2-----0------|
E|-----0-----0-----2------|

 (Right after "I'm coming over")
e|----3----3----|
B|----3----3----|
G|----0----2----|
D|----2----0----|
A|----3----0----|
E|----0----2----|

Chorus:(Then you said, Noooowhoahhhh, im never gonna be inside of you..)
e|-----3-----3-----3-----3-----3-----|
B|-----3-----3-----3-----3-----3-----|
G|-----0-----2-----0-----0-----2-----|
D|-----2-----0-----2-----0-----0-----|
A|-----2-----0-----3-----2-----0-----|
E|-----0-----2-----0-----3-----2-----|

(Because, i know im gonna fall...)
e|-----3-----3-----3-----3------|
B|-----3-----3-----3-----3------|
G|-----0-----0-----0-----2------|
D|-----2-----0-----2-----0------|
A|-----3-----2-----2-----0------|
E|-----0-----3-----0-----2------|
 
(Because, I know, I know, I know i cant get inside of you..)
e|-----3-----3-----3-----3-----|
B|-----3-----3-----3-----3-----|
G|-----0-----0-----2-----2-----|
D|-----2-----0-----0-----0-----|
A|-----3-----2-----0-----0-----|
E|-----0-----3-----2-----2-----|

(Instrumental)
e|-----3-----3-----3------|
B|-----3-----3-----3------|
G|-----0-----0-----2------|
D|-----2-----2-----0------|
A|-----3-----2-----0------|
E|-----0-----0-----2------|

(I'm on a trip, I can't get off, Can't get over... )
e|-----3-----3-----3------|
B|-----3-----3-----3------|
G|-----0-----0-----2------|
D|-----2-----2-----0------|
A|-----3-----2-----0------|
E|-----0-----0-----2------|

(I'm coming over, yeah, yeah, yeahhh)
e|----3----3----|
B|----3----3----|
G|----0----2----|
D|----2----0----|
A|----3----0----|
E|----0----2----|

Chorus:(Noooo whoahhhh, I'm never gonna be inside of you...)
e|-----3-----3-----3-----3-----3-----|
B|-----3-----3-----3-----3-----3-----|
G|-----0-----2-----0-----0-----2-----|
D|-----2-----0-----2-----0-----0-----|
A|-----2-----0-----3-----2-----0-----|
E|-----0-----2-----0-----3-----2-----|

(Because, i know im gonna fall...)
e|-----3-----3-----3-----3------|
B|-----3-----3-----3-----3------|
G|-----0-----0-----0-----2------|
D|-----2-----0-----2-----0------|
A|-----3-----2-----2-----0------|
E|-----0-----3-----0-----2------|

(Because, I know, I know, I know i cant get inside of you..)
e|-----3-----3-----3-----3-----|
B|-----3-----3-----3-----3-----|
G|-----0-----0-----2-----2-----|
D|-----2-----0-----0-----0-----|
A|-----3-----2-----0-----0-----|
E|-----0-----3-----2-----2-----|

(I'm on a trip, I can't get off, can't get over..)
e|-----3-----3-----3------|
B|-----3-----3-----3------|
G|-----0-----0-----2------|
D|-----2-----2-----0------|
A|-----3-----2-----0------|
E|-----0-----0-----2------|

(After "Im coming over")
e|----3----3----|
B|----3----3----|
G|----0----2----|
D|----2----0----|
A|----3----0----|
E|----0----2----|

(Ends with this)
e|-----3-----3-----3-----3-----|
B|-----3-----3-----3-----3-----|
G|-----0-----0-----2-----0-----|
D|-----2-----2-----0-----2-----|
A|-----3-----2-----0-----3-----|
E|-----0-----0-----2-----0-----|
Tap to rate this tab
 
# A B C D E F G H I J K L M N O P Q R S T U V W X Y Z