Song name
# A B C D E F G H I J K L M N O P Q R S T U V W X Y Z

The Maine - We All Roll Along tab

We All Roll Along (Intro) Ė Tab

Guitar 1 probably isnít exactly right because I did it by ear, 
But I know the first part is right, itís the second part Iím not so sure about. 
Guitar 2 is pretty solid. :)

Guitar 1 Intro: Top 2 lines (B,e)
Guitar 2 Intro: Bottom 4 lines (E,A,D,G)
Obviously not on the same guitar, but to show timing Iím putting them together. 

H hammer on
/ slide up
\ slide down

e|-----7-----0-----------11----------|
B|-4/5---5-5-5-------5/7-----7-7-----|
G|--6---------6------4---------------|
D|--7---------6------4---------------|
A|--7---------4------2---------------|
E|--5--------------------------------| 

e|-----7-----0-----------11-------------|
B|-4/5---5-5-5-------5/7----7-7----7h9\-|
G|--6---------6------4------------------|
D|--7---------6------4------------------|
A|--7---------4------2------------------|
E|--5-----------------------------------| 

e|-----7-----0----------11------------7---|
B|-4/5---5-5-5------5/7----7-7-7-7-7h9-9--|
G|--6-6-6-6-6-6-6-6-4-4-4-4-4-4-4-4-4-4-4-|
D|--7-7-7-7-7-6-6-6-4-4-4-4-4-4-4-4-4-4-4-|
A|--7-7-7-7-7-4-4-4-2-2-2-2-2-2-2-2-2-2-2-|
E|--5-5-5-5-5-----------------------------| 

e|-----7-----0----------11------------7---|
B|-4/5---5-5-5------5/7----7-7-7-7-7h9-9--|
G|--6-6-6-6-6-6-6-6-4-4-4-4-4-4-4-4-4-4-4-|
D|--7-7-7-7-7-6-6-6-4-4-4-4-4-4-4-4-4-4-4-|
A|--7-7-7-7-7-4-4-4-2-2-2-2-2-2-2-2-2-2-2-|
E|--5-5-5-5-5-----------------------------| 

Tap to rate this tab
 
# A B C D E F G H I J K L M N O P Q R S T U V W X Y Z