Song name
# A B C D E F G H I J K L M N O P Q R S T U V W X Y Z

The Maine - Santa Stole My Girlfriend tab

-----------------------------------------------------------------------
Santa Stole My Girlfriend, The Maine
-----------------------------------------------------------------------
Tabbed by: Josh1691 
Email: Sk8king1600@gmail.com 

Tuning: Standard

This song is one of my favorite by The Maine. This tab is also my first so if 
there are any mistakes feel free to email me.

Intro and Verse: 00:00, 01:04, 01:57

     G     Cadd9        G    
                                 
e|---3-------3----------3---x--------------3--|
B|---3-------3----------3---x--------------3--|
G|---0-------0----------0---x-----------------|
D|---0-------2----------0---x-----------------|
A|---2-0h2h3-3----3/5-------x-----2--3--2--0--|                           
E|---3----------------------x-----3--3--3--3--|
     G      
e|--------------------------------------------------------------------|
B|--0--3--3/5-----------------------0--3--3/5-------------------------|
G|------------2-----0-2h4-2p0-----------------2---0-2p0---------------|
D|-------------------------------------------------------0------------|
A|--------------------------------------------------------------------|
E|--------------------------------------------------------------------|

The strumming pattern was too difficult to tab so you will have to figure it out 
on your own. Sorry.

Pre-Chorus: 00:37, 01:30

     G Cadd9 G Cadd9  

e|---3---3---3---3~~~~---------------------------|
B|---3---3---3---3~~~~---------------------------|
G|---0---0---0---0~~~~--let-last-note-ring-------|
D|---0---2---0---2~~~~---------------------------|
A|---2---3---2---3~~~~---------------------------|
E|---3-------3-----------------------------------|

Chorus: 00:46, 01:40

     G Cadd9 Emadd9 G

e|---3----3----3----3----|-----------------------------------|
B|---3----3----3----3----|-----------------------------------|
G|---0----0----0----0---.|--------Second-time-around---------|
D|---0----2----2----2---.|-X2---let-the-last-note-ring-------|
A|---2----3---------3----|-----------------------------------|
E|---3-------------------|-----------------------------------|


************************************

| /   slide up
| \   slide down
| h   hammer-on
| p   pull-off
| ~   vibrato
| +   harmonic
| x   Mute note
| b   Bend
| pb  Pre-bend
| br  Bend release
| pbr Pre-bend release
| brb Bend release bend

************************************
Tap to rate this tab
 
# A B C D E F G H I J K L M N O P Q R S T U V W X Y Z