Song name
# A B C D E F G H I J K L M N O P Q R S T U V W X Y Z

The Maine - Saving Grace tab

I so love this version! :"> Can't find any tab so I tried to figure out. It's not 
that hard. Comment and rate, please? :)

Capo on 3rd [relative to capo]

Intro and Verse:
(I walk the tight rope on my way home
I walk the fault line but I'm still alone)
e|--------------------------------------------------------------------------------|
B|--------------------------------------------------------------------------------|
G|------0--------0--------0--------0------------0--------0--------0--------0------|
D|--------------------------------------------------------------------------------|
A|------------------------------------------3-3----3-3-3----3-3-3----3-3-3----(3)-|
E|--3-3----3-3-3----3-3-3----3-3-3----(3)-----------------------------------------|

Refrain:
(And It's true. Oh, it's you. It's always you.)
e|----------------------------------------------------------|
B|----------------------------------------------------------|
G|-----2-------2--------2--------2----------0--------0------|
D|-0-0---0-0-0----0-0-0----0-0-0---(0)----------------------|
A|--------------------------------------3-3----3-3-3----3-3-|
E|----------------------------------------------------------|

Repeat Verse and Refrain:
(I still remember how your lips tasted
Come this december, oh I'll be wasted
And it's true, oh it's you
It's because)


Chorus: [Try to correct me with this one because I'm not quite sure]
G
All we have is what's left today
Cadd9
Hearts so pure in this broken place
       Em7      D(sus4)   Cadd9   D(sus4) *strum once
'Cause you are, you are ..........       my saving grace


Repeat Intro
(Keep on searching, keep on searching for me
And I'll keep on searching, keep on searching for you
Oh just keep on searching, keep on searching for me
And I'll keep on searching, keep on searching for you, you

Oh just keep on searching, keep on searching for me
And I'll keep on searching, keep on searching for you
Oh just keep on searching, keep on searching for me
And I'll keep on searching, keep on searching for you)


=====That's pretty much it. If there are any mistakes, correct me.
Don't forget to comment and rate! :)
~Love live, The Maine <3
Tap to rate this tab
 
# A B C D E F G H I J K L M N O P Q R S T U V W X Y Z