The Maine - Color tab

Artist: The Maine
Song: Color
Album: Black & White
Tabbed by: gustavoaraujo999@hotmail.com


**This version is easier but you can't have a capo on.
e|------------------------------------------------------------------|
B|-6-8------6-8-------------3------3---4p3--------------------------|
G|-----5-7------5-5-3---3h5----3h5---------5--3h5-------------------|
D|------------------------------------------------3-----------------|
A|------------------------------------------------------------------|
E|------------------------------------------------------------------|
 
e|------------------------------------------------------------------|
B|-6-8------6-8-----------------------4-3---------------------------|
G|-----5-7------5-5-3---3h5-7--3h5-7------3-2-3---------------------|
D|------------------------------------------------------------------|
A|------------------------------------------------------------------|
E|------------------------------------------------------------------|


**This version is harder but you can play it with a capo.
e|------------------------------------------------------------------|
B|-6-8------6-8------------------------4p3--------------------------|
G|-----5-7------5-5-3---3h5-7--3h5-7-------5--3h5-------------------|
D|------------------------------------------------5-----------------|
A|------------------------------------------------------------------|
E|------------------------------------------------------------------|

e|------------------------------------------------------------------|
B|-6-8------6-8-----------------------------------------------------|
G|-----5-7------5-5-3---3h5-7--3h5-7---8-7--------------------------|
D|-----------------------------------------8-7-8--------------------|
A|------------------------------------------------------------------|
E|------------------------------------------------------------------|
Tap to rate this tab
 
# A B C D E F G H I J K L M N O P Q R S T U V W X Y Z