Song name
# A B C D E F G H I J K L M N O P Q R S T U V W X Y Z

The Maine - Saving Grace tab

e-----------------------------------------------------------------------------|
B-----------------------------------------------------------------------------|
G-----------------------------------------------------------------------------|
D-------7---------7----------7--------7----------7----------7---------7-------|
A--------------------------------------------5-5----5--5-5-----5--5-5---------|
E---5-5----5--5-5-----5--5-5----5--5-5----5-----------------------------------|

e--------------------------------|
B--------------------------------|
G--------------------------------|
D----------7---------------------|  x3
A--5--5-5-----5------------------|
E--------------------------------|

e-----------------------------------------------------------------------------|
B-----------------------------------------------------------------------------|
G-----------------------------------------------------------------------------|
D--------9---------9----------9----------9------------7----------7---------7--|
A---7-7----7--7-7-----7--7-7-----7--7-7------7---5-5-----5--5-5-----5--5-5----|
E-----------------------------------------------------------------------------|

e-----------------------------------------------------------------------------|
B-----------------------------------------------------------------------------|
G-----------------------------------------------------------------------------|
D----------7-----------7----------7-----------7-----------7-------------------|
A--5--5-5-----5---------------------------------------------------------------|
E-----------------5-5------5--5-5-----5--5-5------5--5-5----------------------|
Tap to rate this tab
 
# A B C D E F G H I J K L M N O P Q R S T U V W X Y Z