Song name
# A B C D E F G H I J K L M N O P Q R S T U V W X Y Z

The Maine - Saving Grace tab

So I heard this revise (loved it) and tried a tab for this one and thought it wasn't as 
right, so I'm gonna give it a go at how I'm hearing it.

Saving Grace (Version 2)- The Maine
(In Darkness & In light)
This is my second tab from this LP and with the plucking I wrote down how I hear it, the 
second verse does sound a little different but have fun with it!
NO CAPO

Intro
e|------------------------------------------------------|
B|------------------------------------------------------|
G|------------------------------------------------------|
D|------7-----7-----7-----7-----7-----7-----7-----7-----|
A|--0-0---0-0---0-0---0-0---5-5---5-5---5-5---5-5-------|
E|------------------------------------------------- x 2-|

Verse 1.
e|------------------------------------------------------|
B|------------------------------------------------------|
G|------------------------------------------------------|
D|------7-----7-----7-----7-----7-----7-----7-----7-----|
A|--0-0---0-0---0-0---0-0---5-5---5-5---5-5---5-5-------|
E|------------------------------------------------- x 2-|

I walk the tightrope, on my way home.
I walk the fault line, but I'm still alone.

e|--------------------------------------------------|
B|--------------------------------------------------|
G|--------------------------------------------------|
D|------9-----9-----9-----9-----7-----7-----7-----7-|
A|--7-7---7-7---7-7---7-7---5-5---5-5---5-5---5-5---|
E|--------------------------------------------------|

And it's true, oh it's you. It's always you.

Instrumental + Verse 2.
e|------------------------------------------------------|
B|------------------------------------------------------|
G|------------------------------------------------------|
D|------7-----7-----7-----7-----7-----7-----7-----7-----|
A|--0-0---0-0---0-0---0-0---5-5---5-5---5-5---5-5-------|
E|------------------------------------------------- x 3-|

I still remember, how your lips tasted.
Come this December, oh I'll be wasted.

e|--------------------------------------------------|
B|--------------------------------------------------|
G|--------------------------------------------------|
D|------9-----9-----9-----9-----7-----7-----7-----7-|
A|--7-7---7-7---7-7---7-7---5-5---5-5---5-5---5-5---|
E|--------------------------------------------------|

And it's true, oh it's you.
It's because-

Chorus.
A
All we have is what's left today,
E
Hearts so pure in this broken place.
A                          E
Coz you are, yooouuuuu are.

My Saving Grace.

Outro.
e|------------------------------------------------------|
B|------------------------------------------------------|
G|------------------------------------------------------|
D|------7-----7-----7-----7-----7-----7-----7-----7-----|
A|--0-0---0-0---0-0---0-0---5-5---5-5---5-5---5-5-------|
E|------------------------------------------------- x 8-|

Keep on searching, keep on searching for me
And I'll keep on searching, keep on searching for you
Oh just keep on searching, keep on searching for me
And I'll keep on searching, keep on searching for you, you

Oh just keep on searching, keep on searching for me
And I'll keep on searching, keep on searching for you
         A                                       D
Oh just keep on searching, keep on searching for me
         A                   D            (Fade out)
And I'll keep on searching, keep on searching for you)



(Tabbed by Han :3)
Tap to rate this tab
 
# A B C D E F G H I J K L M N O P Q R S T U V W X Y Z