Song name
# A B C D E F G H I J K L M N O P Q R S T U V W X Y Z

The Maine - Listen To Your Heart chords

Highlighted       Show chord diagrams
Artist: The Maine
Song: Listen To Your Heart
Album: Black & White
Tabbed by: gustavoaraujo999@hotmail.com

Chords used:
Eb = x68886
Bb/D = x587xx
G# = 466544
A# = 688766

Intro:
Eb

[Verse 1]
Eb                                      Bb/D
We're too young, this is never gonna work, 
                                      G# 
that's what they say, you're gonna get hurt. 
                          A#     (C)
But I know something they don't.
Eb                                 Bb/D
I hear your heart beating right in time.
                                             G#       
Right from the start, knew I had to make you mine,
                           A#
And now I'll never let you go.


[Pre-chorus]
                     G#         A#
Don't they know that love won't lie?


[Chorus 1]
Eb                       A#
Don't listen to them all,
                           G#       A#		
They say we're never gonna make it.
      Eb                     A#   
Don't listen to your friends,
                            G#       A#
They would've never let us start.
           G#                          A#
And don't listen to the voices in your head, listen to your heart.

Interlude: 
Eb

[Verse 2]
Eb                                  Bb/D
This promise doesn't have to be too loud.
                                      G#
Just whisper, I could find you in a crowd.
                         A#
I think it's time we ran away.
Eb
Your father says I'm not good enough for him.
Bb/D                                        G#
Your mother, she thinks that this is just a phase.
                       A#
I think that we should run away.

[Chorus 2]
Eb                       A#
Don't listen to them all,
                           G#       A#
They say we're never gonna make it.
      Eb                     A#   
Don't listen to your friends,
                            G#       A#
They would've never let us start.
           G#                          A#
And don't listen to the voices in your head, listen to your heart.

Eb   A#    G#     A# [x2]
You gotta listen to your heart
Go on and listen to your heart
Come on and listen to your heart

[Bridge]
G#        
It'll tell the truth,
              A#
It'll set you free,
               Eb       Bb/D      A#
It'll say that you were meant for me,
                                    G#
And this is where we're supposed to be, yeah.

[Solo]
Eb   A#    G#     A# [x2]

e|------------------------------------------------------------------|
B|-16-----16--------------------------------------------------------|
G|-15-----15--------------------------------------------------------|
D|----15^----15^-------8-10-----------------------------------------|
A|----------------8-10------10-8--6--5-6-8-10--8-10-13--------------|
E|------------------------------------------------------------------|

e|-----------------------------------16-15--------------------------------|
B|-16-----16-------------------------------16-----------------------------|
G|-15-----15------------12-15-----------------15---12-13-12---------------|
D|----15^----15^--13-15-------15-13-------------------------15-13--12-13--|
A|------------------------------------------------------------------------|
E|------------------------------------------------------------------------|


       Eb~
Don't listen to the world,

They say we're never going to make it.
      A#
But I know we'll make it.


[Chorus 3]
Eb                       A#
Don't listen to your friends,
                           G#       A#		
They would've never let us start.
          Eb                           A#   
And don't listen to the voices in your head,
          G#                     A#
Love will never ever let us fall apart.

Eb   A#    G#     A# [x2]
You gotta listen to your heart.
Go on and listen to your heart
You gotta listen to your heart
Come on and listen to your heart
Listen to your heart.
Tap to rate this tab
 
# A B C D E F G H I J K L M N O P Q R S T U V W X Y Z