The Maine - Saving Grace tab

I'm not quite sure on the chords of the chorus part tho~


Intro
-----------------------------------------------------------------|
-----------------------------------------------------------------|
-----2-------2-------2-------2-------2-------2-------2-------2---|
---------------------------------0-0---0-0-0---0-0-0---0-0-0---0-|
-0-0---0-0-0---0-0-0---0-0-0---0---------------------------------|
-----------------------------------------------------------------|

-----------------------------------------------------------------|
-----------------------------------------------------------------|
-----2-------2-------2-------2-------2-------2-------2-------2---|
---------------------------------0-0---0-0-0---0-0-0---0-0-0---0-|
-0-0---0-0-0---0-0-0---0-0-0---0---------------------------------|
-----------------------------------------------------------------|


Verse

"I walk the tight rope on my way home."
-----------------------------------------------------------------|
-----------------------------------------------------------------|
-----2-------2-------2-------2-------2-------2-------2-------2---|
---------------------------------0-0---0-0-0---0-0-0---0-0-0---0-|
-0-0---0-0-0---0-0-0---0-0-0---0---------------------------------|
-----------------------------------------------------------------|

"I walk the fault line, but I'm still alone."
-----------------------------------------------------------------|
-----------------------------------------------------------------|
-----2-------2-------2-------2-------2-------2-------2-------2---|
---------------------------------0-0---0-0-0---0-0-0---0-0-0---0-|
-0-0---0-0-0---0-0-0---0-0-0---0---------------------------------|
-----------------------------------------------------------------|

"And it's true, oh it's you. It's always you."
-----------------------------------------------------------------|
-----0-------0-------0-------0-----------------------------------|
-----------------------------------2-------2---------------------|
-2-2---2-2-2---2-2-2---2-2-2---0-0---0-0-0---0-0-----------------|
-----------------------------------------------------------------|
-----------------------------------------------------------------|


Interlude
-----------------------------------------------------------------|
-----------------------------------------------------------------|
-----2-------2-------2-------2-------2-------2-------2-------2---|
---------------------------------0-0---0-0-0---0-0-0---0-0-0---0-|
-0-0---0-0-0---0-0-0---0-0-0---0---------------------------------|
-----------------------------------------------------------------|

-----------------------------------------------------------------|
-----------------------------------------------------------------|
-----2-------2-------2-------2-------2-------2-------2-------2---|
---------------------------------0-0---0-0-0---0-0-0---0-0-0---0-|
-0-0---0-0-0---0-0-0---0-0-0---0---------------------------------|
-----------------------------------------------------------------|


Verse

"I still remember how your lips tasted."
-----------------------------------------------------------------|
-----------------------------------------------------------------|
-----2-------2-------2-------2-------2-------2-------2-------2---|
---------------------------------0-0---0-0-0---0-0-0---0-0-0---0-|
-0-0---0-0-0---0-0-0---0-0-0---0---------------------------------|
-----------------------------------------------------------------|

"Come this December oh I'll be wasted."
-----------------------------------------------------------------|
-----------------------------------------------------------------|
-----2-------2-------2-------2-------2-------2-------2-------2---|
---------------------------------0-0---0-0-0---0-0-0---0-0-0---0-|
-0-0---0-0-0---0-0-0---0-0-0---0---------------------------------|
-----------------------------------------------------------------|

"And it's true, oh it's you. It's because..."
-----------------------------------------------------------------|
-----0-------0-------0-------0-----------------------------------|
-----------------------------------2-------2---------------------|
-2-2---2-2-2---2-2-2---2-2-2---0-0---0-0-0---0-0-----------------|
-----------------------------------------------------------------|
-----------------------------------------------------------------|

Chorus
A
All we have is what's left today
E
Hearts so pure in this broken place
F#m
Coz you are, you are
D
My saving grace


Outro

"Oh just keep on searching, keep on searching for me
And I'll keep on searching, keep on searching for you
Oh just keep on searching, keep on searching for me
And I'll keep on searching, keep on searching for you"
-----------------------------------------------------------------|
-----------------------------------------------------------------|
-----2-------2-------2-------2-------2-------2-------2-------2---|
---------------------------------0-0---0-0-0---0-0-0---0-0-0---0-|
-0-0---0-0-0---0-0-0---0-0-0---0---------------------------------|
-----------------------------------------------------------------|

-----------------------------------------------------------------|
-----------------------------------------------------------------|
-----2-------2-------2-------2-------2-------2-------2-------2---|
---------------------------------0-0---0-0-0---0-0-0---0-0-0---0-|
-0-0---0-0-0---0-0-0---0-0-0---0---------------------------------|
-----------------------------------------------------------------|
Tap to rate this tab
 
# A B C D E F G H I J K L M N O P Q R S T U V W X Y Z