Song name
# A B C D E F G H I J K L M N O P Q R S T U V W X Y Z

The Maine - Girls Do What They Want tab

-----------------------------------------------------------------
Girls Do What They Want - The Maine
-----------------------------------------------------------------
Tabbed by: FOB182

Tuning: Standard

still kind of a work in progress but i want to let you guys learn most of the song,
still working on powerchords and lead in bridge, will update in the future.  also dont know
what happened to the intro tabbing? the bars got all messed when i coppied and pasted 
from my word document sorry

Lead

Intro (come in 2 times after rhythm)
e I----------------------------------------------------------------------------------|
b I----------------------------------------------------------------------------------|
g I-13-13-13-11-11-13-13--13/1/9/13/11---13-13-13-1-1-9-9---16161616161616-----------|
d I-x--x--x--x--x--x--x--x---/x/x/x-/x-/x-----x--x--x--x-x-x-x----x--x--x--x--x-x-x--|
a I-11-11-11-9--9--11-11--11/9/7/11/9----11-11-11-9-9-7-7---14141414141414-----------|
E I----------------------------------------------------------------------------------|

Verse
e|------0------0--------------------0------------------------------|
B|----0------0----------0--------0---------------------------------|
G|-4------8-------9--9---9--11-------------------------------------|
D|-----------------------------------------------------------------|
A|-----------------------------------------------------------------|
E|-----------------------------------------------------------------|
play until 0:30

0:37-0:45 (pre chorus)
e|---------------------------------------------------------------|
B|---------------------------------------------------------------|
G|--9------------------------------------------------------------|
D|---------------------------------------------------------------|
A|---------------------------------------------------------------|
E|---------------------------------------------------------------|
play at a constant pace the entire time

Chorus
e I----------------------------------------------------------------------------------|
b I----------------------------------------------------------------------------------|
g I-13-13-13-11-11-13-13--13/1/9/13/11---13-13-13-1-1-9-9---16161616161616-----------|
d I-x--x--x--x--x--x--x--x---/x/x/x-/x-/x-----x--x--x--x-x-x-x----x--x--x--x--x-x-x--|
a I-11-11-11-9--9--11-11--11/9/7/11/9----11-11-11-9-9-7-7---14141414141414-----------|
E I----------------------------------------------------------------------------------|

1:00-1:07
e|------0------0--------------------0------------------------------|
B|----0------0----------0--------0---------------------------------|
G|-4------8-------9--9---9--11-------------------------------------|
D|-----------------------------------------------------------------|
A|-----------------------------------------------------------------|
E|-----------------------------------------------------------------|
Verse play palm muted
e|------0------0--------------------0------------------------------|
B|----0------0----------0--------0---------------------------------|
G|-4------8-------9--9---9--11-------------------------------------|
D|-----------------------------------------------------------------|
A|-----------------------------------------------------------------|
E|-----------------------------------------------------------------|

Verse continued, 1:22
e|-----------------------------------------------------------------|
B|-----------------------------------------------------------------|
G|-9-9-9-9-/--9-9-8-8-9-9------------------------------------------|
D|-9-9-9-9-/--9-9-8-8-9-9------------------------------------------|
A|-7-7-7-7-/--7-7-6-6-7-7------------------------------------------|
E|-----------------------------------------------------------------|
x2


Pre verse
e|---------------------------------------------------------------|
B|---------------------------------------------------------------|
G|--9------------------------------------------------------------|
D|---------------------------------------------------------------|
A|---------------------------------------------------------------|
E|---------------------------------------------------------------|
play at a constant pace the entire time

Chorus
e I----------------------------------------------------------------------------------|
b I----------------------------------------------------------------------------------|
g I-13-13-13-11-11-13-13--13/1/9/13/11---13-13-13-1-1-9-9---16161616161616-----------|
d I-x--x--x--x--x--x--x--x---/x/x/x-/x-/x-----x--x--x--x-x-x-x----x--x--x--x--x-x-x--|
a I-11-11-11-9--9--11-11--11/9/7/11/9----11-11-11-9-9-7-7---14141414141414-----------|
E I----------------------------------------------------------------------------------|

1:57 pickslide

bridge
e|-----------------------------------------------------------------|
B|------5-5-5-5-5-5------------------------------------------------|
G|-8-8-------------------------------------------------------------|
D|-----------------------------------------------------------------|
A|-----------------------------------------------------------------|
E|-----------------------------------------------------------------|

Chorus 2:43
e I----------------------------------------------------------------------------------|
b I----------------------------------------------------------------------------------|
g I-13-13-13-11-11-13-13--13/1/9/13/11---13-13-13-1-1-9-9---16161616161616-----------|
d I-x--x--x--x--x--x--x--x---/x/x/x-/x-/x-----x--x--x--x-x-x-x----x--x--x--x--x-x-x--|
a I-11-11-11-9--9--11-11--11/9/7/11/9----11-11-11-9-9-7-7---14141414141414-----------|
E I----------------------------------------------------------------------------------|

2:56 fade till end
e|------0------0--------------------0------------------------------|
B|----0------0----------0--------0---------------------------------|
G|-4------8-------9--9---9--11-------------------------------------|
D|-----------------------------------------------------------------|
A|-----------------------------------------------------------------|


Rhythm

Intro
e |------------------------------------|
b |------------------------------------|
g |------------------------------------|
d |-9-9-9--6-6-7-7-6-6-7-7-9-9---------|
a |-7-7-7--6-6-7-7-6-6-7-7-9-9---------|
E |---------4-4-5-5-4-4-5-5-7-7--------|

0:22 - 0:38
(palm muted)
e|--------------------------------------------------------|
B|--------------------------------------------------------|
G|-9-9--9-9-9---------------------------------------------|
D|-9-9--9-9-9--6--7--9-9--6--7--9--9----------------------|
A|-7-7--7-7-7--6--7--9-9--6--7--9--9----------------------|
E|-------------4--5--7-7--4--5--7--7----------------------|
x2 second time not palm muted

Chorus
e |------------------------------------|
b |------------------------------------|
g |------------------------------------|
d |-9-9-9--6-6-7-7-6-6-7-7-9-9---------|
a |-7-7-7--6-6-7-7-6-6-7-7-9-9---------|
E |---------4-4-5-5-4-4-5-5-7-7--------|

1:09-1:29
(palm muted)
e|-----------------------------------------------------------------|
B|-----------------------------------------------------------------|
G|-9-9--9-9-9------------------------------------------------------|
D|-9-9--9-9-9--6--7--9-9--6--7--9--9-------------------------------|
A|-7-7--7-7-7--6--7--9-9--6--7--9--9-------------------------------|
E|---------------4--5--7-7--4--5--7--7-----------------------------|
x5 fourth time not palm muted

Chorus
e |------------------------------------|
b |------------------------------------|
g |------------------------------------|
d |-9-9-9--6-6-7-7-6-6-7-7-9-9---------|
a |-7-7-7--6-6-7-7-6-6-7-7-9-9---------|
E |---------4-4-5-5-4-4-5-5-7-7--------|

1:51-1:58
e|--0-------0---0------0-------------------------------------------|
B|--0-------0---0------0-------------------------------------------|
G|-4----4-----4----4-----------------------------------------------|
D|-----------------------------------------------------------------|
A|-----------------------------------------------------------------|
E|-----------------------------------------------------------------|
1:58-2:28
e|-----------------------------------------------------------------|
B|------5-5-5-5-5-5------------------------------------------------|
G|-8-8-------------------------------------------------------------|
D|-----------------------------------------------------------------|
A|-----------------------------------------------------------------|
E|-----------------------------------------------------------------|

2:28-2:40
e |------------------------------------|
b |------------------------------------|
g |------------------------------------|
d |-9-9-9--6-6-7-7-6-6-7-7-9-9---------|
a |-7-7-7--6-6-7-7-6-6-7-7-9-9---------|
E |---------4-4-5-5-4-4-5-5-7-7--------|

2:40-2:42 (palm muted)
e|-----------------------------------------------------------------|
B|-----------------------------------------------------------------|
G|-----------------------------------------------------------------|
D|--9-9-9-9-9-9-9-9------------------------------------------------|
A|--9-9-9-9-9-9-9-9------------------------------------------------|
E|--7-7-7-7-7-7-7-7------------------------------------------------|

Chorus
e |------------------------------------|
b |------------------------------------|
g |------------------------------------|
d |-9-9-9--6-6-7-7-6-6-7-7-9-9---------|
a |-7-7-7--6-6-7-7-6-6-7-7-9-9---------|
E |---------4-4-5-5-4-4-5-5-7-7--------|
until 2:56

| / slide up
| \ slide down
| h hammer-on
| p pull-off
| ~ vibrato
| + harmonic
| x Mute note

incase of editing purposes
Tap to rate this tab
 
# A B C D E F G H I J K L M N O P Q R S T U V W X Y Z