Song name
# A B C D E F G H I J K L M N O P Q R S T U V W X Y Z

The Maine - Santa Stole My Girlfriend tab

----------------------------------------------------------------------------
              "Santa Stole My Girlfriend" by The Maine
----------------------------------------------------------------------------


Intro/Verses(Rhythm)

E|-----------------------------------------------------------|
B|---3--------------3--------3-------3----3------------------|
G|---0--------------0--------0-------0----2------------------|
D|---0-----------------------4-------------------------------|
A|------0-2h-3h--3----3/5-5------0---------------------------|
E|---3-----------------------------0----2--------------------|

Intro (Lead)
E|-----------------------------------------------------------|
B|-----3-/5-----------------------3-/5-----------------------|
G|---4------2---0-2-4-2-0-------4------2---------------------|
D|---------------------------------------5-4-----------------|
A|-------------------------------------------5---------------|
E|-----------------------------------------------------------|


Pre-Chorus (Rhythm)
E|---0-0-0-0---0-0-0-0---------------------------------------|
B|---1-1-1-1---1-1-1-1---------------------------------------|
G|---0-0-0-0---0-0-0-0---------------------------------------|
D|---2-2-2-2---2-2-2-2---------------------------------------|
A|---0-0-0-0---3-3-3-3---------------------------------------|
E|-----------------------------------------------------------|


Chorus (Rhythm)
E|---3----0----3----3----------------------------------------|
B|---3----1----3----3----------------------------------------|
G|---0----0----0----0----------------------------------------|
D|---0----2----2----2----------------------------------------|
A|---2----3----2----3----------------------------------------|
E|---5----0----0---------------------------------------------|


Chorus (Lead)
E|---3---3---5---5---3---3---2---2---------------------------|
B|-----3---3---3---3---3---3---3---3-------------------------|
G|-----------------------------------------------------------|
D|-----------------------------------------------------------|
A|-----------------------------------------------------------|
E|-----------------------------------------------------------|


Bridge (Rhythm)

E|-----------------------------------------------------------|
B|---0----------3-----3--------------------------------------|
G|---0----------0-----0--0---0---0---------------------------|
D|---0--------2---2---4--4---0---0---------------------------|
A|------0-2/3-------5----------------------------------------|
E|---3---------------------0---2-----------------------------|

Bridge (Lead) Piano
E|-----------19--17--15--15----------------------------------|
B|---15------------------------------------------------------|
G|-------16--------------------------------------------------|
D|-----------------------------------------------------------|
A|-----------------------------------------------------------|
E|-----------------------------------------------------------|

Tap to rate this tab
# A B C D E F G H I J K L M N O P Q R S T U V W X Y Z