Song name
# A B C D E F G H I J K L M N O P Q R S T U V W X Y Z

The Maine - Misery tab

e|------------------------|------------------------|
B|------------------------|-------------------9----|
G|------------------------|-------------------9----|   x2
D|----------4/6-6---------|----------4/6-6----9----|
A|-----7-9-7---7-7--------|-----7-9-7---7-7--------|
E|--7h9-------------------|--7h9-------------------|

e|------------------------|----------|
B|------------------------|----------|
G|------------------------|--11--13--|
D|----------4/6-6---------|--11--13--|
A|-----7-9-7---7-7--------|--9---11--|
E|--7h9-------------------|----------|


I'll say this once again
You people you are my friends
The devil he can't come in
Tonight, that's right

C#m        A        E
  Looking for misery 
               C#m
But you found me
       A              E
Lying naked on the floor
C#m       A         E
  I was headed insane
                        C#m
The devil told me his name
              A          B
But he's not welcome here
Anymore


e|------------------------|      e|------------------------|
B|------------------------|      B|-------------------9----|
G|------------------------|  x2  G|-------------------9----|
D|----------4/6-6---------|      D|----------4/6-6----9----|
A|-----7-9-7---7-7--------|      A|-----7-9-7---7-7--------|
E|--7h9-------------------|      E|--7h9-------------------|

e|------------------------|------------------------|----------|
B|------------------------|-------------------9----|----------|
G|------------------------|-------------------9----|--11--13--|
D|----------4/6-6---------|----------4/6-6----9----|--11--13--|
A|-----7-9-7---7-7--------|-----7-9-7---7-7--------|--9---11--|
E|--7h9-------------------|--7h9-------------------|----------|

Tell me what do you see 
(What do you see)
When your looking at me
(When you look at me)
This sounds so responsibility 
Is killing me 
Inside, yeah

C#m        A        E
  Looking for misery 
               C#m
But you found me
       A              E
Lying naked on the floor   (Stay away, sweet misery)
C#m       A         E
  I was headed insane
                        C#m
The devil told me his name
              A          B
But he's not welcome here
Anymore


E  C#m  G#m       A
            Stay away sweet misery
E  C#m  G#m       A
            Stay away sweet misery
E  C#m  G#m  A
E  C#m  G#m  A


G#m  A  E   x4


e|------------------------|------------------------|
B|-------------------9----|------------------------|
G|-------------------9----|------------------------|
D|----------4/6-6----9----|----------4/6-6---------|
A|-----7-9-7---7-7--------|-----7-9-7---7-7--------|
E|--7h9-------------------|--7h9-------------------|

e|------------------------|----------|
B|-------------------9----|----------|
G|-------------------9----|--11--13--|
D|----------4/6-6----9----|--11--13--|
A|-----7-9-7---7-7--------|--9---11--|
E|--7h9-------------------|----------|


C#m        A        E
  Looking for misery 
               C#m
But you found me
       A              E
Lying naked on the floor   (Stay away, sweet misery)
C#m       A         E
  I was headed insane
                        C#m
The devil told me his name
              A          B
But he's not welcome here
Anymore


E  C#m  G#m       A
            Stay away sweet misery
E  C#m  G#m       A
            Your not welcome anymore
E  C#m  G#m       A
            Stay away sweet misery
E  C#m  G#m  A
Tap to rate this tab
 
# A B C D E F G H I J K L M N O P Q R S T U V W X Y Z