Song name
# A B C D E F G H I J K L M N O P Q R S T U V W X Y Z

The Maine - My Heroine tab

-------------------------------------------------------------------------------
			     MY HEROINE - The Maine
-------------------------------------------------------------------------------
Tabbed by: Kamdude

Tuning: Standard

Let me know if you have any corrections but this tab is pretty legit I think. Ill add 
the solo guitar and the lyrics with chords by december 19th

Guitar from 0:00-0:20

e|------------------------------------------------------------------------|
B|------------------------------------------------------------------------|
G|------9----7----5-----------9----12---9--------------------------12-----|
D|-7----9----7----5-----7-----9----12---9-x2--*2nd-time-end-on-the-12-----|
A|-7----7----5----3-----7-----7----10---7--------------------------10-----|
E|-5--------------------5-------------------------------------------------|

Guitar from 0:10-0:20

e|--------------------------------------------------------------|
B|--------------------------------------------------------------|
G|-------------9---7-7---5-5----------------9----12-12--9-9-----|
D|-7-7-7---7---9---7-7---5-3----7-7-7---7---9----12-12--9-9-x2--|
A|-7-7-7---7---7---5-5---3-3----7-7-7---7---7----10-10--7-7-----|
E|-5-5-5---5--------------------5-5-5---5-----------------------|

Verses:
                     Bridge part (strum)
e|------------------------------------------|
B|------------------------------------------|
G|-------------------------1----------------|
D|-7-7------7--7-7---------2----------------|
A|-7-7------7--7-7-x4------2----------------|
E|-5-5------5--5-5--------------------------|


Chorus (strum these chords)      End on an E

  Am       F       C       G       E
e|-0-------1-------0-------3-------0---------------------------|
B|-1-------1-------1-------3-------0---------------------------|
G|-2-------2-------0-------0-------1---------------------------|
D|-2-------3-------2-------0-x4----2---------------------------|
A|-0-------3-------3-------2-------2---------------------------|
E|-0-------1-------x-------3-------0---------------------------|

Theres this guitar in the chorus, its hard to make out but should be like this:

e|-----0--------------------------------------------------|
B|-----------1--------------------------------------------|
G|---2-----2-----------------5/7--9--12--17---------------|
D|--------------2--2/3-2-x4-------------------------------|
A|-0-----3----3-------------------------------------------|
E|--------------------------------------------------------|


e|-------------------------------------------------------|
B|-------------------------------------------------------|
G|-------------------------------------------------------|
D|---this-solo-will-be-up-by--december-19th--------------|
A|-------------------------------------------------------|
E|-------------------------------------------------------|
Tap to rate this tab
# A B C D E F G H I J K L M N O P Q R S T U V W X Y Z