Song name
# A B C D E F G H I J K L M N O P Q R S T U V W X Y Z

The Maine - Take Me Dancing tab

I heard this song, by this amazing band, and just could stop listening to it!
And then I came here and couldn't find it's tab, so I decided to try to do it...
It's my first one, so if it's wrong, you're allowed to change it.

I take it from here: http://www.youtube.com/watch?v=TANvZ9sy-SQ&feature=related

Standard Tuning

Capo 4th fret

INTRO

E|---------------------------|
B|--1--1--1--1--1--1--1--1---|
G|--2--2--2--2--2--2--2--2---|
D|--2--2--2--2--2--2--2--2---|
A|---------------------------|
E|-----4-----4-----4-----4---|

VERSE 1

"Oh a good man said
If you're feeling dead
You gotta try to find a way to be alive"

E|---------------------------| 
B|--1--1--1--1--1------------|
G|--2--------2--2------------|
D|--2--2-----2--2------------|
A|-----3--2------------------|
E|--------3-----4------------|

VERSE 2

"This is not a game that you have to play
Don't need a reason to breath just like you die"

E|---------------------------| 
B|--1--1--1--1--1------------|
G|--2--------2---------------|
D|--2--2-----2---------------|
A|-----3--2-----2------------|
E|--------3-----3------------|

CHORUS

"Give me thunder
Give me lightning
And I will give you every part of me

Take me dancing
Get me fucked up
Play that old guitar and we will sing"

E|---------------------------| 
B|--1--1--1--1--1------------|
G|--------2------------------|2x
D|--2-----3--2---------------|
A|--3--2--3--3--2------------|
E|-----3--------3------------|

INTRO AGAIN

E|---------------------------|
B|--1--1--1--1--1--1--1------|
G|--2--2--2--2--2--2--2------|
D|--2--2--2--2--2--2--2------|
A|---------------------------|
E|-----4-----4-----4---------|

VERSE 3

"Oh my old man said
You must die in your bed the way you make it
No one can make it like you do"

E|---------------------------| 
B|--1--1--1--1--1------------|
G|--2--------2--2------------|
D|--2--2-----2--2------------|
A|-----3--2------------------|
E|--------3-----4------------|

VERSE 4

"Oh you're not alone
You still have a home
No matter what you do my son
I'm still proud of you"

E|---------------------------| 
B|--1--1--1--1--1------------|
G|--2--------2---------------|
D|--2--2-----2---------------|
A|-----3--2-----2------------|
E|--------3-----3------------|

CHORUS

"Give me thunder
Give me lightning
And I will give you every part of me

Take me dancing
Get me fucked up
Play that old guitar and we will sing"

E|---------------------------| 
B|--1--1--1--1--1------------|
G|--------2------------------|2x
D|--2-----3--2---------------|
A|--3--2--3--3--2------------|
E|-----3--------3------------|

BRIDGE

E|---------------------------| 
B|--1--1-----1---------------|
G|--2--------2---------------|2x
D|--3-----2--2---------------|
A|--3--2--2------------------|
E|-----3---------------------|

then

E|---------------------------| 
B|--1--1-----1--1--1---------|
G|--2--------2-----2---------|
D|--3-----2--2-----3---------|
A|--3--2--2-----2--3---------|
E|-----3--------3------------|

CHORUS

"Give me thunder
Give me lightning
And I will give you every part of me

Take me dancing
Give me thunder
Play that old guitar and we will sing"

E|---------------------------| 
B|--1--1--1--1--1------------|
G|--------2------------------|2x
D|--2-----3--2---------------|
A|--3--2--3--3--2------------|
E|-----3--------3------------|

And ends with Am

E|-----|
B|--1--|
G|--2--|
D|--2--|
A|-----|
E|-----|

That's it! I hope you enjoy it! :)
Tap to rate this tab
 
# A B C D E F G H I J K L M N O P Q R S T U V W X Y Z