Song name
# A B C D E F G H I J K L M N O P Q R S T U V W X Y Z

The Maine - Misery tab

I played this by ear and sounded identical. 



Intro
e|------------------------|---------------------0--|
B|------------------------|---------------------0--|
G|------------------------|------------------------|
D|-----2-4-2---2/6--------|-----2-4-2---2/6--------|
A|--2h4------0------------|--2h4------0------------|
E|------------------0-----|------------------0-----|

Haven't figured out the second chord he plays when he says "That's Right".


Verse
I'll say this once again
You people you are my friends
The devil he can't come in
Tonight, that's right

Chorus
C#m        A        E
  Looking for misery 
               C#m
But she found me
       A              E
Lying naked on the floor(Stay away, sweet misery)
C#m       A         E
  I was headed insane
                        C#m
The devil told me his name
              A          B
But he's not welcome here anymore.


e|------------------------|---------------------0--|
B|------------------------|---------------------0--|
G|------------------------|------------------------|
D|-----2-4-2---2/6--------|-----2-4-2---2/6--------|
A|--2h4------0------------|--2h4------0------------|
E|------------------0-----|------------------0-----|

Verse 2
Tell me what do you see 
(What do you see)
When your looking at me
(When you look at me)
This sounds so responsibility 
Is killing me 
Inside, yeah

Chorus 2
C#m        A        E
  Looking for misery 
               C#m
But she found me
       A              E
Lying naked on the floor(Stay away, sweet misery)
C#m       A         E
  I was headed insane
                        C#m
The devil told me his name
              A          B
But he's not welcome here anymore.

Tap to rate this tab
 
# A B C D E F G H I J K L M N O P Q R S T U V W X Y Z