Song name
# A B C D E F G H I J K L M N O P Q R S T U V W X Y Z

The Maine - Roses tab

TABBED BY: 100%Put0

Standard Tuning

Chords throughout the song:

Em-D-C-G-G/F#

G/F#:           D:

e|-3-           e|-2-       e|-0-|
B|-3-           B|-3-       B|-3-|
G|-0-           G|-2-   or  G|-0-|
D|-0-           D|-0-       D|-4-|
A|-0-           A|-x-       A|-5-|
E|-2-           E|-x-       E|-0-|

intro:
e|--------------------------------------------|
B|--------------------------------------------|
G|---------------------------------7----------|
D|--55-7-7/9~--55-7-7/9~--55-7-7/9~---55-4----| (2x)
A|-----------------------------------------5~-|
E|--------------------------------------------|

solo:
e|--------------------------------|
B|--------------------------------|
G|--------------------------------|
D|--7/9-7-55-----5-----5-7-7/9-9--|
A|-----------5h7---5h7------------|
E|--------------------------------|

continue....

e|--------------------------------------|
B|--------------------------------------|
G|-------------------------------7------|
D|--7/9-7-55-----5-----777-5-7-5---7-5~-|
A|-----------5h7---5h7------------------|
E|--------------------------------------|

continue.....

e|-----------------------------------------|
B|-----------------------------------------|
G|------------------7----------------------|
D|------5-777-5-7-5---7-5~------5-777-5-4~-|
A|--5h7---------------------5h7------------|
E|-----------------------------------------|


enjoy :D
Tap to rate this tab
# A B C D E F G H I J K L M N O P Q R S T U V W X Y Z