Song name
# A B C D E F G H I J K L M N O P Q R S T U V W X Y Z

The Maine - Dont Stop Now tab

Capo 2nd fret
Intro:
E|----3--3--3--3--3--3--3--3--|
B|----3--3--3--3--3--3--3--3--|
G|----0--0--0--0--0--0--2--2--|
D|----2--0--2--0--2--0--x--x--| x2
A|----3--2--3--2--3--2--x--x--|
E|----x--3--x--3--x--3--x--x--|

Verse:
E|----3--3--3--3--3--3--3--3--|
B|----3--3--3--3--3--3--3--3--|
G|----0--0--0--0--0--0--2--2--|
D|----2--0--2--0--2--0--x--x--| x4
A|----3--2--3--2--3--2--x--x--|
E|----x--3--x--3--x--3--x--x--|

Chorus
E|-3----3----3----3-----|
B|-3----3----3----3-----|
G|-0----0----0----2-----|
D|-2----0----2----x-----| x2
A|-3----2----2----x-----|
E|-x----3----x----x-----|

Fill
E|-3----3----3s-----3--3--3--3--3--3--3--3--|
B|-3----3----3s-----3--3--3--3--3--3--3--3--|
G|-2----0----2s-----0--0--0--0--0--0--2--2--|
D|-2----2----xs-----2--0--2--0--2--0--x--x--| 
A|-0----3----xs-----3--2--3--2--3--2--x--x--|
E|-x----x----xs-----x--3--x--3--x--3--x--x--|

REPEAT Verse

REPEAT Chorus

REPEAT Fill (only play until the S's)

Instrumental
E|-3----3----3--3--3----|
B|-3----3----3--3--3----|
G|-2----0----2--0--2----|
D|-2----2----2--2--x----| 
A|-0----3----0--3--x----|
E|-x----x----x--x--x----|

Final Chorus
E|-3----3----3----3-----|
B|-3----3----3----3-----|  The first time play only
G|-0----0----0----2-----|  a single down stroke.
D|-2----0----2----x-----| x4
A|-3----2----2----x-----|
E|-x----3----x----x-----|

REPEAT Fill

Ending
E|----3--3--3--3--3--3--3--3--|      E|-3~|
B|----3--3--3--3--3--3--3--3--|      B|-3~|
G|----0--0--0--0--0--0--2--2--|      G|-0~|
D|----2--0--2--0--2--0--x--x--| x2   D|-2~|
A|----3--2--3--2--3--2--x--x--| then A|-3~|
E|----x--3--x--3--x--3--x--x--|      E|-x~|

credits http://tabs.ultimate-guitar.com/t/the_maine/dont_stop_now_tab.htm
Tap to rate this tab
 
# A B C D E F G H I J K L M N O P Q R S T U V W X Y Z