Song name
# A B C D E F G H I J K L M N O P Q R S T U V W X Y Z

The Maine - Happy Acoustic tab

use this video for rhythm etc: http://www.youtube.com/watch?v=netiz2ZrxGU

-

intro: G Am C Am(open)

-

verse:

e-----------------------------------------------|
B-----------------------------12----------12----|
G-----11---------12--------------------------14-|
D-9-9-9-9-/10-10-10-10-/12-12-12-12-12-12-12----|
A-----------------------------------------------|
E-----------------------------------------------|

e-------------------------------------------------|
B-------------------------------------------------|
G-------14----------14----------12----------12----|
D-11-11-11-11-11-11-11-11-10-10-10-10-10-10-10-10-|
A-------------------------------------------------|
E-------------------------------------------------|

-

chorus: C G Am

e-----5-----|
B-----5-----|
G-9-8-5  ---| (continues same as intro chords)
D-9-8-5-----|
A-7-6-3-----|
E-0-0-3-----|

-

the instrumental/solo bit just reuses the same chords, watch the video to see which ones.
Tap to rate this tab
# A B C D E F G H I J K L M N O P Q R S T U V W X Y Z