Song name
# A B C D E F G H I J K L M N O P Q R S T U V W X Y Z

The Maine - Raining In Paris tab

This is my first attempt to making a tab. Hope this did you some good.
 Took me an hour and a half to tab this, so yeah! 
This was all tabbed by ear, so I may have some wrong but for the most 
of it, it sounds pretty accurate. Thanks :-)
-Kaitlyn

Questions?
http://sixty-nining.tumblr.com/ask || http://johnoooh.tumblr.com/faq

Capo 6th

INTRO-

e|---------------------------------------------------------------------------|
B|--1----------1---------1--------1-----1-----1-----1-----1------------------|
G|--0h2--------2p--------0--------0-----0-----0-----0-----0------------------|
D|--3----------3---------0h2------2p----0-----0h2---2-----0------------------|
A|--3----------3---------3--------3-----0h2---2p----0-----2p-----------------|
E|--------------------------------------3-----3-----3-----3------------------|
continued-
e|---------------------------------------------------------------------------|
B|--1----------1---------1--------1-----1-----1------------------------------|
G|--0h2--------2p--------0--------0-----0-----0------------------------------|
D|--3----------3---------0h2------2p----0-----0------------------------------|
A|--3----------3---------3--------3-----0h2---2------------------------------|
E|--------------------------------------3-----3------------------------------|

VERSE-
 midnight...paris,  and...as...the rain...face...
e|---------------------------------------------------------------------------|
B|1---------1-------1-----1----1----------1----------------------------------|
G|0---------2-------0-----0----2----------0----------------------------------|
D|2---------2-------0-----2----2----------0----------------------------------|
A|3-----------------2-----3---------------2----------------------------------|
E|------------------3---------------------3----------------------------------|

  so I...toward...ferris...from...Champs Eysees
e|---------------------------------------------------------------------------|
B|1------1--------1--------1------1-------1----------------------------------|
G|0------2--------0--------0------2-------0----------------------------------|
D|2------2--------0--------2------2-------0----------------------------------|
A|3---------------2--------3--------------2----------------------------------|
E|----------------3-----------------------3----------------------------------|

...Now...alooo-one...always...alooo-one...
e|---------------------------------------------------------------------------|
B|-------1----1---------------1-----1----------------------------------------|
G|-------2----2---------------2-----0----------------------------------------|
D|-2-----2----3------2--------2-----0----------------------------------------|
A|-2----------3------2--------------2----------------------------------------|
E|----------------------------------3----------------------------------------|

CHORUS-

Heart...love...paris...What good...gold...share...
e|---------------------------------------------------------------------------|
B|1-----1------1-------1-----------1------1----------------------------------|
G|2-----0------0-------2-----------0------0----------------------------------|
D|3-----2------0-------3-----------2------0----------------------------------|
A|3-----3------2-------3-----------3------2----------------------------------|
E|-------------3--------------------------3----------------------------------|

  down...coming down...head...hardly bare it...
e|---------------------------------------------------------------------------|
B|1------1-------------1------1------1---------------------------------------|
G|2------0-------------2------0------2---------------------------------------|
D|3------2-------------2------0------3---------------------------------------|
A|3------3--------------------2------3---------------------------------------|
E|----------------------------3----------------------------------------------|

my heart...love...Paris...
e|---------------------------------------------------------------------------|
B|-1-------1------1------1-----1-----1----1-----1-----1-----1----------------|
G|-2-------0------0h2----2p----0-----0----0-----0-----0-----0----------------|
D|-3-------0------3------3-----0h2---2p---0-----0h2---2-----2p---------------|
A|-3-------2------3------3-----3-----3----0h2---2p----0-----0----------------|
E|---------3------------------------------3-----3-----3-----3----------------|

e|---------------------------------------------------------------------------|
B|--1----------1---------1--------1-----1-----1------------------------------|
G|--0h2--------2p--------0--------0-----0-----0------------------------------|
D|--3----------3---------0h2------2p----0-----0------------------------------|
A|--3----------3---------3--------3-----0h2---2------------------------------|
E|--------------------------------------3-----3------------------------------|

VERSE 2-
  Let it rain on me.....Hearts on fire...Always... Love...Really did
e|---------------------------------------------------------------------------|
B|1------1------1-------1---------1------1---------1------1------------------|
G|2------0------0-------2---------0------0---------2------0------------------|
D|2------0------2-------2---------0------2---------2------0------------------|
A|-------2------3-----------------2------3----------------2------------------|
E|-------3------------------------3-----------------------3------------------|

  anything for me...try...goddamn city...
e|---------------------------------------------------------------------------|
B|1--1---------1----1-----1------------1-------------------------------------|
G|2--0---------0----2-----0------------0-------------------------------------|
D|3--2---------0----3-----0------------2-------------------------------------|
A|3--3---------2----3-----2------------3-------------------------------------|
E|-------------3----------3--------------------------------------------------|

  and if...storm...should...ask...dance...cliche...
e|---------------------------------------------------------------------------|
B|-1-------1-----------1----1-----1-------1----------------------------------|
G|-2-------0-----------0----2-----0-------0----------------------------------|
D|-2-------0-----------2----2-----0-------2----------------------------------|
A|---------2-----------3----------2-------3----------------------------------|
E|---------3----------------------3------------------------------------------|

  We'd...straws...favorite coffee shop...
e|---------------------------------------------------------------------------|
B|1------1--------1--------1------1------------------------------------------|
G|2------0--------2--------0------0------------------------------------------|
D|2------0--------3--------2------0------------------------------------------|
A|-------2--------3--------3------2------------------------------------------|
E|-------3------------------------3------------------------------------------|

  Life...romance...
e|---------------------------------------------------------------------------|
B|1------1-------------------------------------------------------------------|
G|2------0-------------------------------------------------------------------|
D|3------0-------------------------------------------------------------------|
A|3------2-------------------------------------------------------------------|
E|-------3-------------------------------------------------------------------|

CHORUS-

Heart...love...paris...What good...gold...share...
e|---------------------------------------------------------------------------|
B|1-----1------1-------1-----------1------1----------------------------------|
G|2-----0------0-------2-----------0------0----------------------------------|
D|3-----2------0-------3-----------2------0----------------------------------|
A|3-----3------2-------3-----------3------2----------------------------------|
E|-------------3--------------------------3----------------------------------|

  down...coming down...head...hardly bare it...
e|---------------------------------------------------------------------------|
B|1------1-------------1------1------1---------------------------------------|
G|2------0-------------2------0------2---------------------------------------|
D|3------2-------------2------0------3---------------------------------------|
A|3------3--------------------2------3---------------------------------------|
E|----------------------------3----------------------------------------------|

my heart...love...Paris...
e|---------------------------------------------------------------------------|
B|-1-------1------1------1-----1-----1----1-----1-----1-----1----------------|
G|-2-------0------0h2----2p----0-----0----0-----0-----0-----0----------------|
D|-3-------0------3------3-----0h2---2p---0-----0h2---2-----2p---------------|
A|-3-------2------3------3-----3-----3----0h2---2p----0-----0----------------|
E|---------3------------------------------3-----3-----3-----3----------------|

e|---------------------------------------------------------------------------| x2
B|--1----------1---------1--------1-----1-----1-----1-----1------------------|
G|--0h2--------2p--------0--------0-----0-----0-----0-----0------------------|
D|--3----------3---------0h2------2p----0-----0h2---2-----0------------------|
A|--3----------3---------3--------3-----0h2---2p----0-----2p-----------------|
E|--------------------------------------3-----3-----3-----3------------------|

e|---------------------------------------------------------------------------|
B|--1------1-----1-----1----1----1----1----1-----1---------------------------|
G|--0h2----2p----0-----0----2----0----2----2-----0---------------------------|
D|--3------3-----0h2---2p---2----0----3----3-----0---------------------------|
A|--3------3-----3-----3---------2----3----3-----2---------------------------|
E|-------------------------------3---------------3---------------------------|


BRIDGE-
   I met a man who...sold umbrellas and...just $5 saved me
e|---------------------------------------------------------------------------|
B|1---------------1---------1------------1---------------1-------------------|
G|0---------------2---------0------------0---------------2-------------------|
D|2---------------2---------0------------2---------------2-------------------|
A|3-------------------------2------------3-----------------------------------|
E|--------------------------3------------------------------------------------|

...rain...for now...alooo-one...i like... alooo-one...
e|---------------------------------------------------------------------------|
B|-1----------------1-----1---------------1-----1----------------------------|
G|-0----------------2-----2---------------2-----0----------------------------|
D|-0----------2-----2-----3-------2-------2-----0----------------------------|
A|-2----------2-----------3-------2-------------2----------------------------|
E|-3--------------------------------------------3----------------------------|

Tap to rate this tab
# A B C D E F G H I J K L M N O P Q R S T U V W X Y Z