Song name
# A B C D E F G H I J K L M N O P Q R S T U V W X Y Z

The Maine - Visions tab

Hey guys, this is my first tab, so if you have any suggestions for things I could
do better, please let me know! Comments/Questions post here or email
Harvey.Timothy.A@gmail.com

Capo 6th fret

Intro/Verse
"Last night...."

e|--------------------------------------------------------------------------|
B|----4-----4---------2-----2--------0-----0--------------------------------|
G|------4-----4---4-----4-----4--4-----1-----1---1--------------------------|
D|--------------------------------------------------------------------------|
A|--------------------------------------------------------------------------|
E|--4-----4-----4---2-----2-----2--0-----0-----0----------------------------|

Repeat this until he sings "...dancing on the back of my brain"


Pre-Chorus
"Hallucinating...."

e|------------------------------------------------------------------------|
B|---------------4-----------------5----------------0----0---0---0--------|
G|----------4------------------4--------------------1------------1--------|X2
D|------------------------------------------------------------------------|
A|----2--------------------4----------------------------------------------|
E|----------------------------------------------4----------4---4----------|

Chorus
"We kissed and..."
                        B
e|----------------------0---------------------------------------------|
B|-----2h4------2p0-----0---------------------------------------------|
G|----------------------4---------------------------------------------|X4
D|---4-------4----------4---------------------------------------------|
A|-2--------------------2---------------------------------------------|
E|---------2--------0---0---------------------------------------------|

There is a part where another guitar starts strumming I don't know the name of one of 
the chords, but here they are:

Chords

    B     ?     E
e|--0-----x-----0------------|
B|--0-----0-----0------------|
G|--4-----3-----2------------|
D|--4-----4-----2------------|
A|--2-----4-----1------------|
E|--0-----2-----0------------|

Play order:
Intro
Verse
Pre-chorus
Chorus
Intro
Verse
Pre-chorus
Chorus
Solo(During the Harmonica solo part, play the chorus 4 times)
Pre-chorus(Just once)
Chorus
Outro(play the chorus 4 more times for the outro)

Lyrics:

Intro

Verse:
Last night I saw you in a dream
I’m still not sure just what it means
Tonights before much of the same
I found you dancing on the back of my brain

Pre-Chorus:
Hallucinating things I find in my head
Illuminating the right side of my bed

Chorus:
And we kissed and we fought
I laughed and you screamed
Oh I’ve learned to love these
Goddamn visions
But I just can’t wait to fall back to sleep

Verse:
Oh I woke up and I felt let down
You tied up your sliver hair and left this town
Your three hundred something miles away
I close my eyes and all I see is your face

Pre-Chorus:
Hallucinating things I find in my head
Illuminating the right side of my bed

Chorus:
And we kissed and we fought
I laughed and you screamed
Oh I’ve learned to love these
Goddamn visions
But I just can’t wait to fall back to sleep

Pre-Chorus:
Hallucinating

Chorus:
And we kissed and we fought
I laughed and you screamed
Oh I’ve learned to love these
Goddamn visions
But I just can’t wait, I just cant wait
No I just cant wait, to fall back to sleep
Tap to rate this tab
# A B C D E F G H I J K L M N O P Q R S T U V W X Y Z