Song name
# A B C D E F G H I J K L M N O P Q R S T U V W X Y Z

The Maine - My Heroine tab

====== THE MAINE - MY HEROINE ======

\ = Slide up
/ = slide down
* = let ring
p = pull off
h = hammer on

Intro

E-------------------------------------------------|
B-------------------------------------------------|
G-------------------------------------------------|
D-------------------------------------------------|
A--------\12---\5---\3--------\12-----\15---\12---|
E--\5--------------------\5-----------------------|

E-------------------------------------------------|
B-------------------------------------------------|
G-------------------------------------------------|
D-------------------------------------------------|
A--------\12---\5---\3--------\12-----\15*--------|
E--\5--------------------\5-----------------------|

Pre-Verse

A second guitar will play the intro once again

Listen for strumming pattern

    A         C   G
E-----------------3-------------------------------|
B---2---------1---3-------------------------------|
G---2---------------------------------------------|
D---2---------2-----------------------------------|
A-------------3---2-------------------------------|
E-----------------3-------------------------------|


Verse

E---------------------------------------------|
B--2-2-----0-2h-0-2h--------------------------|
G--2-2-----0-2h-0-2h--------------------------|
D--2-2-----0-2h-0-2h--------------------------| [Repeat x however many]
A---------------------------------------------|
E---------------------------------------------|


Pre-Chorus

"Just let me in"

E--------------------------------------------|
B--------------------------------------------|
G--1---\---10--------------------------------|
D--------------------------------------------|
A--2---\---11--------------------------------|
E--------------------------------------------|

Chorus
    A     F    C
E---------1--------------------------------------|
B---2-----1----1---------------------------------|
G---2-----2--------------------------------------|
D---2-----3----2---------------------------------|   [ x3 ]
A--------------3---------------------------------|
E------------------------------------------------|


E--------------------------------------------|
B--------------------------------------------|
G--1---\---10--------------------------------|
D--------------------------------------------|
A--2---\---11--------------------------------|
E--------------------------------------------|

Pre-Verse

A second guitar will play the intro once again

Listen for strumming pattern

    A         C   G
E-----------------3-------------------------------|
B---2---------1---3-------------------------------|
G---2---------------------------------------------|
D---2---------2-----------------------------------|
A-------------3---2-------------------------------|
E-----------------3-------------------------------|


Verse

E---------------------------------------------|
B--2-2-----0-2h-0-2h--------------------------|
G--2-2-----0-2h-0-2h--------------------------|
D--2-2-----0-2h-0-2h--------------------------| [Repeat x however many]
A---------------------------------------------|
E---------------------------------------------|


Chorus
    A     F    C
E---------1--------------------------------------|
B---2-----1----1---------------------------------|
G---2-----2--------------------------------------|
D---2-----3----2---------------------------------|   [ x3 ]
A--------------3---------------------------------|
E------------------------------------------------|


E--------------------------------------------|
B--------------------------------------------|
G--1---\---10--------------------------------|
D--------------------------------------------|
A--2---\---11--------------------------------|
E--------------------------------------------|

Solo

In the background 

E-------------------------------------------|
B-------------------------------------------|
G--2----------------------------------------|
D--2----------------------------------------|
A--2----------------------------------------|
E-------------------------------------------|

Solo - cREDIT TO huggy248


E|------5-------------------5---5---------|
B|--------5-------------------8---8/10----|
G|--7b------5--7p5------7b----------------|
D|------------------7~--------------------|
A|----------------------------------------|
E|----------------------------------------|


E|----------------------------------------------------------------------|
B|-------------------------------------------------------3---5----------|
G|-------------------------------------------------------5b--7b---------|
D|----------------------------------------------------------------------|
A|------/12--/5--/3------/12--/15--/12------/12--/5--/3-----------------|
E|--/5---------------/5-----------------/5------------------------------|


Da-Da-Da

No guitar


Pre-chors

In the background 

E-------------------------------------------|
B-------------------------------------------|
G--2----------------------------------------|
D--2----------------------------------------|
A--2----------------------------------------|
E-------------------------------------------|


E-------------------------------------------------|
B-------------------------------------------------|
G-------------------------------------------------|
D-------------------------------------------------|
A--------\12---\5---\3--------\12-----\15---\12---|
E--\5--------------------\5-----------------------|

E-------------------------------------------------|
B-------------------------------------------------|
G-------------------------------------------------|
D-------------------------------------------------|
A--------\12---\5---\3--------\12-----\15*--------|
E--\5--------------------\5-----------------------|


Chorus
    A     F    C
E---------1--------------------------------------|
B---2-----1----1---------------------------------|
G---2-----2--------------------------------------|
D---2-----3----2---------------------------------|   [ x3 ]
A--------------3---------------------------------|
E------------------------------------------------|


E--------------------------------------------|
B--------------------------------------------|
G--1---\---10--------------------------------|
D--------------------------------------------|
A--2---\---11--------------------------------|
E--------------------------------------------|

Play twice


Feel free to correct
Tap to rate this tab
# A B C D E F G H I J K L M N O P Q R S T U V W X Y Z