Song name
# A B C D E F G H I J K L M N O P Q R S T U V W X Y Z

The Manhattans - Kiss And Say Good Bye tab

The tab thats up here is good, but its not detailed enough.

capo 2
       EADGBe
A      x02220
E      022100
D      xx0232
Asus4  x02230

 E                                 A
|----------------|----------------|----------------|----------------|
|----------------|----------------|---2-------2----|---2-------2----|\
|---1-------1----|---1-------1----|-----2-------2--|-----2-------2--| |all
|-----2-------2--|-----2-------2--|-------2-------2|-------2-------2| |8th
|-------2-------2|-------2-------2|-0-------0------|-0-------0------| |notes
|-0-------0------|-0-------0------|----------------|----------------|/

 E                                  e e e e e e e e  w
|----------------|----------------|----------------|----------------|
|----------------|----------------|-3-2-3-2-3-2-3-2|-2--------------|
|---1-------1----|---1-------1----|-2-2-2-2-2-2-2-2|-2--------------|
|-----2-------2--|-----2-------2--|-2-2-2-2-2-2-2-2|-2--------------|
|-------2-------2|-------2-------2|-0-0-0-0-0-0-0-0|-0--------------|
|-0-------0------|-0-------0------|----------------|----------------|
                                   (                  )
                                   switch btw Asus4 and A

 D                                 A
|---2-------2----|---2-------2----|----------------|----------------|
|-----3-------3--|-----3-------3--|---2-------2----|---2-------2----|\
|-------2-------2|-------2-------2|-----2-------2--|-----2-------2--| |all
|-0-------0------|-0-------0------|-------2-------2|-------2-------2| |8th
|----------------|----------------|-0-------0------|-0-------0------| |notes
|----------------|----------------|----------------|----------------|/

 E                                  e e e e e e e e  w  
|----------------|----------------|----------------|----------------|
|----------------|----------------|-3-2-3-2-3-2-3-2|-2--------------|
|---1-------1----|---1-------1----|-2-2-2-2-2-2-2-2|-2--------------|
|-----2-------2--|-----2-------2--|-2-2-2-2-2-2-2-2|-2--------------|
|-------2-------2|-------2-------2|-0-0-0-0-0-0-0-0|-0--------------|
|-0-------0------|-0-------0------|----------------|----------------|
                                   (same deal as before)
play that whole part twice, then

 E                                 A
|----------------|----------------|----------------|----------------|
|----------------|----------------|---2-------2----|---2-------2----|\
|---1-------1----|---1-------1----|-----2-------2--|-----2-------2--| |all
|-----2-------2--|-----2-------2--|-------2-------2|-------2-------2| |8th
|-------2-------2|-------2-------2|-0-------0------|-0-------0------| |notes
|-0-------0------|-0-------0------|----------------|----------------|/
 play that four times, then

 E                                 (NC)                
|----------------|----------------|----------------|---5---4---2---0|
|----------------|----------------|----------------|---7---5---3---2|
|---1-------1----|---1-------1----|----------------|---7---6---4---2|
|-----2-------2--|-----2-------2--|----------------|---7---6---4---2|
|-------2-------2|-------2-------2|----------------|----------------|
|-0-------0------|-0-------0------|----------------|----------------|



here lies dobby, a free elf
Tap to rate this tab
# A B C D E F G H I J K L M N O P Q R S T U V W X Y Z