Song name
# A B C D E F G H I J K L M N O P Q R S T U V W X Y Z

The Marble Index - On The Phone tab

The Marble Index - On The Phone
Album: s/t
Standard Tuning

-=Intro=-

Starts off with drums and some feedback and then this comes in:
e|----0--------------------------0---------------------------|
B|----0--------------------------0---------------------------|
G|----1--------------------------1---------------------------|
D|----2--------------------------2---------------------------|
A|----2--------------------------2---------------------------|
E|----0--------------------------0---------------------------| 

e|-----------------------------------------------------------|
B|----5br--5--5-5--5-5--5--5-5--3--3--3--3-------------------|
G|-----------------------------------------4s6--6-6--6--6----|
D|-----------------------------------------------------------|
A|-----------------------------------------------------------|
E|-----------------------------------------------------------|

e|----0---------------------0--------------------------------|
B|----0---------------------0--------------------------------|
G|----1---------------------1--------------------------------|
D|----2----7--7--7brp5------2----7brp5----7brp5--------------|
A|----2----------------7----2----------7--------7------------|
E|--0---------------------0----------------------------------|

e|---------------------------------------------------------|
B|----5--5--5-5--5-5--5--5-5--3--3--3--3-------------------|
G|---------------------------------------4s6--6-6--6--6----|
D|---------------------------------------------------------|
A|---------------------------------------------------------|
E|---------------------------------------------------------|

e|----0---------------------0--------------------------------|
B|----0---------------------0--------------------------------|
G|----1---------------------1--------------------------------|
D|----2----7--7--7brp5------2----7brp5----7brp5--------------|
A|----2----------------7----2----------7--------7------------|
E|--0---------------------0----------------------------------| 

  
-=Verse=-

e|---------------------------------------------------------|
B|----5--5--5-5--5-5--5--5-5--3--3--3--3-------------------|
G|---------------------------------------4s6--6-6--6--6----|
D|---------------------------------------------------------|
A|---------------------------------------------------------|
E|---------------------------------------------------------|

e|----0---------------------0------------------------|
B|----0---------------------0------------------------|
G|----1---------------------1------------------------|
D|----2----7--7--7brp5------2----7--7--7brp5---------|
A|----2----------------7----2----------------7-------|
E|--0---------------------0--------------------------|

e|----0--0---0-0---0--0---0-0---3-3-3-3-5-5-5-5-----|
B|----0--0---0-0---0--0---0-0---3-3-3-3-5-5-5-5-----|
G|----1--1---1-1---1--1---1-1---4-4-4-4-6-6-6-6-----|
D|----2--2---2-2---2--2---2-2---5-5-5-5-7-7-7-7-----|
A|----2--2---2-2---2--2---2-2---5-5-5-5-7-7-7-7-----|
E|----0--0---0-0---0--0---0-0---3-3-3-3-5-5-5-5-----| 

e|----0---------------------0--------------------------------|
B|----0---------------------0--------------------------------|
G|----1---------------------1--------------------------------|
D|----2----7--7--7brp5------2----7brp5----7brp5--------------|
A|----2----------------7----2----------7--------7------------|
E|--0---------------------0----------------------------------|  

e|----0--0---0-0---0--0---0-0---3-3-3-3-5-5-5-5-----|
B|----0--0---0-0---0--0---0-0---3-3-3-3-5-5-5-5-----|
G|----1--1---1-1---1--1---1-1---4-4-4-4-6-6-6-6-----|
D|----2--2---2-2---2--2---2-2---5-5-5-5-7-7-7-7-----|
A|----2--2---2-2---2--2---2-2---5-5-5-5-7-7-7-7-----|
E|----0--0---0-0---0--0---0-0---3-3-3-3-5-5-5-5-----| 

e|----0---------------------0--------------------------------|
B|----0---------------------0--------------------------------|
G|----1---------------------1--------------------------------|
D|----2----7--7--7brp5------2----7brp5----7brp5--------------|
A|----2----------------7----2----------7--------7------------|
E|--0---------------------0----------------------------------|  

e|----0--0---0-0---0--0---0-0---3-3-3-3-5-5-5-5-----|
B|----0--0---0-0---0--0---0-0---3-3-3-3-5-5-5-5-----|
G|----1--1---1-1---1--1---1-1---4-4-4-4-6-6-6-6-----|
D|----2--2---2-2---2--2---2-2---5-5-5-5-7-7-7-7-----|
A|----2--2---2-2---2--2---2-2---5-5-5-5-7-7-7-7-----|
E|----0--0---0-0---0--0---0-0---3-3-3-3-5-5-5-5-----| 

e|----0---------------------0--------------------------------|
B|----0---------------------0--------------------------------|
G|----1---------------------1--------------------------------|
D|----2----7--7--7brp5------2----7brp5----7brp5--------------|
A|----2----------------7----2----------7--------7------------|
E|--0---------------------0----------------------------------|  


-=Chorus=-

e|-----------------------------------------------------------|
B|-----------------------------------------------------------|
G|----7--7--7--7-7--7--7--7--7-7--------3--3--3-3--3--3-3----|
D|----7--7--7--7-7--7--7--7--7-7--7--7--3--3--3-3--3--3-3----|
A|----5--5--5--5-5--5--5--5--5-5--7--7--1--1--1-1--1--1-1----|
E|--------------------------------5--5-----------------------| 

e|-----------------------------------------------------------|
B|-----------------------------------------------------------|
G|----5--5--7--7--7-7--7--7-7--------3--3--3-3--3--3-3-------|
D|----5--5--7--7--7-7--7--7-7--7--7--3--3--3-3--3--3-3-------|
A|----3--3--5--5--5-5--5--5-5--7--7--1--1--1-1--1--1-1-------|
E|-----------------------------5--5--------------------------|x3

e|------------------|
B|------------------|
G|----5--5--5-------|
D|----5--5--5-------|
A|----3--3--7-------|
E|------------------|  


-=Verse 2=-

Same as first verse


-=Chorus 2=-

Same as first Chorus


-=Outro=-

e|---0------3------5------0-----------------------------|
B|---0------3------5------0-----------------------------|
G|---1------4------6------1-----------------------------|
D|---2------5------7------2-----------------------------|
A|---2------5------7------2-----------------------------|
E|---0------3------5------0-----------------------------|x2

e|---0--0--0-0--0--0-0--0-0-0--3-3-3-3-3-3-3-3-5-5-5-5-5-5-5-5--|
B|---0--0--0-0--0--0-0--0-0-0--3-3-3-3-3-3-3-3-5-5-5-5-5-5-5-5--|
G|---1--1--1-1--1--1-1--1-1-1--4-4-4-4-4-4-4-4-6-6-6-6-6-6-6-6--|
D|---2--2--2-2--2--2-2--2-2-2--5-5-5-5-5-5-5-5-7-7-7-7-7-7-7-7--|
A|---2--2--2-2--2--2-2--2-2-2--5-5-5-5-5-5-5-5-7-7-7-7-7-7-7-7--|
E|---0--0--0-0--0--0-0--0-0-0--3-3-3-3-3-3-3-3-5-5-5-5-5-5-5-5--|

e|---0--|
B|---0--|
G|---1--|
D|---2--|
A|---2--|
E|---0--|x32

e|---0--0--0-0--0--0-0--0-0-0--3-3-3-3-3-3-3-3-5-5-5-5-5-5-5-5--|
B|---0--0--0-0--0--0-0--0-0-0--3-3-3-3-3-3-3-3-5-5-5-5-5-5-5-5--|
G|---1--1--1-1--1--1-1--1-1-1--4-4-4-4-4-4-4-4-6-6-6-6-6-6-6-6--|
D|---2--2--2-2--2--2-2--2-2-2--5-5-5-5-5-5-5-5-7-7-7-7-7-7-7-7--|
A|---2--2--2-2--2--2-2--2-2-2--5-5-5-5-5-5-5-5-7-7-7-7-7-7-7-7--|
E|---0--0--0-0--0--0-0--0-0-0--3-3-3-3-3-3-3-3-5-5-5-5-5-5-5-5--|

e|---0--|
B|---0--|
G|---1--|
D|---2--|
A|---2--|
E|---0--|x32

e|---0--0--0-0--0--0-0--0-0-0--3-3-3-3-3-3-3-3-5-5-5-5-5-5-5-5--|
B|---0--0--0-0--0--0-0--0-0-0--3-3-3-3-3-3-3-3-5-5-5-5-5-5-5-5--|
G|---1--1--1-1--1--1-1--1-1-1--4-4-4-4-4-4-4-4-6-6-6-6-6-6-6-6--|
D|---2--2--2-2--2--2-2--2-2-2--5-5-5-5-5-5-5-5-7-7-7-7-7-7-7-7--|
A|---2--2--2-2--2--2-2--2-2-2--5-5-5-5-5-5-5-5-7-7-7-7-7-7-7-7--|
E|---0--0--0-0--0--0-0--0-0-0--3-3-3-3-3-3-3-3-5-5-5-5-5-5-5-5--|

e|---0--|
B|---0--|
G|---1--|
D|---2--|
A|---2--|
E|---0--|x32

e|---0--0--0--0--0--0--0--0--3--3--3--3--5--5--5--5-----|
B|---0--0--0--0--0--0--0--0--3--3--3--3--5--5--5--5-----|
G|---1--1--1--1--1--1--1--1--4--4--4--4--6--6--6--6-----|
D|---2--2--2--2--2--2--2--2--5--5--5--5--7--7--7--7-----|
A|---2--2--2--2--2--2--2--2--5--5--5--5--7--7--7--7-----|
E|---0--0--0--0--0--0--0--0--3--3--3--3--5--5--5--5-----|

e|---0--|
B|---0--|
G|---1--|
D|---2--|
A|---2--|
E|---0--|


Any comments or suggestions leave a comment. 


 


Tap to rate this tab
# A B C D E F G H I J K L M N O P Q R S T U V W X Y Z