Song name
# A B C D E F G H I J K L M N O P Q R S T U V W X Y Z

The Marble Index - We Always Complain tab

The Marble Index - We Always Complain
Album: Watch Your Candles Watch Your Knives
Standard Tuning

There seems to be a lack of tabs for this very underrated Canadian band, but I'm pretty sure
this tab is 100% correct. Enjoy!

-=Intro=-

e|------------------------------------------|
B|------------------------------------------|
G|--6----6--6-----------4----4--4-----------|
D|--6----6--6--4-4-4-4--4----4--4--4-4-4-4--|
A|--4----4--4--4-4-4-4--2----2--2--4-4-4-4--|
E|-------------2-2-2-2-------------2-2-2-2--| x4


-=Verse=-

e|------------------------------------------|
B|------------------------------------------|
G|--6----6--6-----------4----4--4-----------|
D|--6----6--6--4-4-4-4--4----4--4--4-4-4-4--|
A|--4----4--4--4-4-4-4--2----2--2--4-4-4-4--|
E|-------------2-2-2-2-------------2-2-2-2--| x4
    *    *  *  * * * *  *    *  *  * * * *

e|------------------------------------------|
B|------------------------------------------|
G|-------------4-4-4-4--6----6--6-----------|
D|--2----2--2--4-4-4-4--6----6--6--4-4-4-4--|
A|--2----2--2--2-2-2-2--4----4--4--4-4-4-4--|
E|--0----0--0----------------------2-2-2-2--|

e|------------------------------------------|
B|------------------------------------------|
G|-------------4-4-4-4--6----6----6----6----|
D|--2----2--2--4-4-4-4--6----6----6----6----|
A|--2----2--2--2-2-2-2--4----4----4----4----|
E|--0----0--0-------------------------------|

e|------------------------------------------|
B|------------------------------------------|
G|--6----6--6-----------4----4--4-----------|
D|--6----6--6--4-4-4-4--4----4--4--4-4-4-4--|
A|--4----4--4--4-4-4-4--2----2--2--4-4-4-4--|
E|-------------2-2-2-2-------------2-2-2-2--|
    *    *  *  * * * *  *    *  *  * * * *

e|------------------------------------------|
B|------------------------------------------|
G|--6----6--6-----------4----4--4--4-4-4-4--|
D|--6----6--6--4-4-4-4--4----4--4--4-4-4-4--|
A|--4----4--4--4-4-4-4--2----2--2--2-2-2-2--|
E|-------------2-2-2-2----------------------|
    *    *  *  * * * *  *

-=Chorus=-

e|-------------------------------------------------------------------|
B|-------------------------------------------------------------------|
G|--6-6-6-6-6-6-6-6-4-4-4-4-4-4-4-4-----------------6-6-6-6-6-6-6-6--|
D|--6-6-6-6-6-6-6-6-4-4-4-4-4-4-4-4-2-2-2-2-2-2-2-2-6-6-6-6-6-6-6-6--|
A|--4-4-4-4-4-4-4-4-2-2-2-2-2-2-2-2-2-2-2-2-2-2-2-2-4-4-4-4-4-4-4-4--|
E|----------------------------------0-0-0-0-0-0-0-0------------------| x2

-=Verse=-

Same as verse 1

-=Chorus=-

This time play it 4 times instead of 2

-=Solo=-

e|---7-------7-------7-------7-------9----------9--------------|
B|-----9---9---9---9---7---7---7---7---11----11---11----11-----|
G|-------9-------9-------8-------8--------11---------11--------|
D|-------------------------------------------------------------|
A|-------------------------------------------------------------|
E|-------------------------------------------------------------|

e|---9--------9--------7-------7-------7-------7---------------|
B|-----9----9---9----9---9---9---9---9---7---7---7---7---------|
G|-------10-------10-------9-------9-------8-------8-----------|
D|-------------------------------------------------------------|
A|-------------------------------------------------------------|
E|-------------------------------------------------------------|


-=Chorus=-

Play the Chorus twice and then play this similar riff

e|----------------------------------------------------|
B|----------------------------------------------------|
G|--6-6-6-6-6-6-6-6-4-4-4-4-4-4-4-4-------------------|
D|--6-6-6-6-6-6-6-6-4-4-4-4-4-4-4-4-2-2-2-2-2-2-2-2---|
A|--4-4-4-4-4-4-4-4-2-2-2-2-2-2-2-2-2-2-2-2-2-2-2-2---|
E|----------------------------------0-0-0-0-0-0-0-0---| x4

-=Outro=-

e|-------------------------------------------------------------------|
B|-------------------------------------------------------------------|
G|---------------------------------------------------6--(6)--(6)-----|
D|--2-2-2-2-2-2-2-2-4-4-4-4-4-4-4-4-4-4-4-4-4-4-4-4--6--(6)--(6)-----|
A|--2-2-2-2-2-2-2-2-4-4-4-4-4-4-4-4-4-4-4-4-4-4-4-4--4--(4)--(4)-----|
E|--0-0-0-0-0-0-0-0-2-2-2-2-2-2-2-2-2-2-2-2-2-2-2-2------------------|

And that's it! Any problems, comments, or suggestions leave a comment.
Tap to rate this tab
 
# A B C D E F G H I J K L M N O P Q R S T U V W X Y Z