Song name
# A B C D E F G H I J K L M N O P Q R S T U V W X Y Z

The Marble Index - We Can Make It tab

The Marble Index - We Can Make It
Album: s/t

Not too sure about this tab, since the bass in the song was a bit louder than the chords 
guitar plays so it kind of disoriented me. But I think it sounds pretty good.

Standard Tuning

-=Intro=-

Starts off with a cool bassline and some drums and the the guitar comes in with this:

e|-----------------------------------------------------------|
B|--7-7-7-7-3-7-3-2---7-7-7-7-3-7-3-0---7-7-7-7-3-7-3-5-(5)--|
G|-----------------------------------------------------------|
D|-----------------------------------------------------------|
A|-----------------------------------------------------------|
E|-----------------------------------------------------------| x2

-=Verse=-

e|--x-x-7-x-x-x-7-x-x-x-7-x-x-x-7-x-x-x-3-x-x-x-3-x-x-x-3-x-x-x-3-x--|
B|--x-x-7-x-x-x-7-x-x-x-7-x-x-x-7-x-x-x-3-x-x-x-3-x-x-x-5-x-x-x-5-x--|
G|--x-x-7-x-x-x-7-x-x-x-7-x-x-x-7-x-x-x-4-x-x-x-4-x-x-x-4-x-x-x-4-x--|
D|-------------------------------------------------------------------|
A|-------------------------------------------------------------------|
E|-------------------------------------------------------------------| x4

-=Pre-Chorus=-

e|--3---------7---------|
B|--3--(x16)--7--(x16)--|
G|--4---------7---------|
D|--5-------------------|
A|----------------------|
E|----------------------| x4

-=Chorus=-

e|--7-7-7-7-5--------3-3-3-3-0----3-3-3-3-0---0---0---0---5---------|
B|--7-7-7-7-5--------3-3-3-3-0----3-3-3-3-0---0---0---0---5---------|
G|--7-7-7-7-6--------4-4-4-4-0----4-4-4-4-0---0---0---0---6-(x16)---|
D|----------7--------5-5-5-5------5-5-5-5-----------------7---------|
A|------------------------------------------------------------------|
E|------------------------------------------------------------------|

-=Verse 2=-

This verse is the same as the first except the intro lick is played over top

-=Pre-Chorus 2=-

e|--3--3--3--3--3--3--3--3--7--7--7--7--7--7--7--7--|
B|--3--3--3--3--3--3--3--3--7--7--7--7--7--7--7--7--|
G|--4--4--4--4--4--4--4--4--7--7--7--7--7--7--7--7--|
D|--5--5--5--5--5--5--5--5--------------------------|
A|--------------------------------------------------|
E|--------------------------------------------------| x2

e|--3-------7-------|
B|--3--x16--7--x16--|
G|--4-------7-------|
D|--5---------------|
A|------------------|
E|------------------| x2

-=Chorus 2=-

Same as first Chorus, just play this one twice

-=Outro=-

e|--7--7--5--5--(5)----3--3--0--0--(0)----|
B|--7--7--5--5--(5)----3--3--0--0--(0)----|
G|--7--7--6--6--(6)----4--4--0--0--(0)----|
D|--------7--7--(7)----5--5---------------|
A|----------------------------------------|
E|----------------------------------------|


Any comments or suggestions leave a comment.
Tap to rate this tab
# A B C D E F G H I J K L M N O P Q R S T U V W X Y Z