Song name
# A B C D E F G H I J K L M N O P Q R S T U V W X Y Z

The Marcels - Blue Moon tab

blue moon


the marcels


TRANSCRIBED BY RUDY GUZMAN


guzman_84@hotmail.com




  Bom ba ba bom  ba bom ba bom bom  ba ba bom ba ba bom                                            
e:-----------------------------------------------------|
B:-1-----------------1--------------------1------------|
G:-0-----------------0--------------------0------------|
D:-2-----------------2--------------------2------------|
A:-3-----------------3--------------------3------------|
E:-----------------------------------------------------|

  ba dang a dang dang  ba ding a dong ding
e:------------------------------------------------------------|
B:----1--------------------1----------------------------------|
G:----0--------------------0----------------------------------|
D:----2--------------------2----------------------------------|
A:-------------------------3-3-1-0----------------------------|
E:------------------------------------------------------------|

  Blue Moon...
e:---------------------------------------------|
B:-1-1-1-1---3-3-3-3-3---3-3-3-3-3---1-1-1-1-1-|
G:-2-2-2-2---2-2-2-2-2---3-3-3-3-3---0-0-0-0-0-|
D:-3-3-3-3---0-0-0-0-0---3-3-3-3-3---2-2-2-2-2-|
A:-3-3-3-3---------------1-1-1-1-1---3-3-3-3-3-|
E:-1-1-1-1-------------------------------------|

  Bom ba ba bom  ba bom ba bom bom  ba ba bom ba ba bom                                            
e:-----------------------------------------------------|
B:-1-----------------1--------------------1------------|
G:-0-----------------0--------------------0------------|
D:-2-----------------2--------------------2------------|
A:-3-----------------3--------------------3------------|
E:-----------------------------------------------------|

  ba dang a dang dang  ba ding a dong ding
e:------------------------------------------------------------|
B:----1--------------------1----------------------------------|
G:----0--------------------0----------------------------------|
D:----2--------------------2----------------------------------|
A:-------------------------3-3-1-0----------------------------|
E:------------------------------------------------------------|

  Blue Moon...                  you saw me standing alone
e:---------------------------------------------|
B:-1-1-1-1---3-3-3-3-3---3-3-3-3-3---1-1-1-1-1-|
G:-2-2-2-2---2-2-2-2-2---3-3-3-3-3---0-0-0-0-0-|
D:-3-3-3-3---0-0-0-0-0---3-3-3-3-3---2-2-2-2-2-|
A:-3-3-3-3---------------1-1-1-1-1---3-3-3-3-3-|
E:-1-1-1-1-------------------------------------|

without a dream in my hear  without a love of my own
e:---------------------------------------------|
B:-1-1-1-1---3-3-3-3-3---3-3-3-3-3---1-1-1-1-1-|
G:-2-2-2-2---2-2-2-2-2---3-3-3-3-3---0-0-0-0-0-|
D:-3-3-3-3---0-0-0-0-0---3-3-3-3-3---2-2-2-2-2-|
A:-3-3-3-3---------------1-1-1-1-1---3-3-3-3-3-|
E:-1-1-1-1-------------------------------------|

  Bom ba ba bom  ba bom ba bom bom  ba ba bom ba ba bom                                            
e:-----------------------------------------------------|
B:-1-----------------1--------------------1------------|
G:-0-----------------0--------------------0------------|
D:-2-----------------2--------------------2------------|
A:-3-----------------3--------------------3------------|
E:-----------------------------------------------------|

  ba dang a dang dang  ba ding a dong ding
e:------------------------------------------------------------|
B:----1--------------------1----------------------------------|
G:----0--------------------0----------------------------------|
D:----2--------------------2----------------------------------|
A:-------------------------3-3-1-0----------------------------|
E:------------------------------------------------------------|

  Blue Moon...                  you knew just what I was there for
e:---------------------------------------------|
B:-1-1-1-1---3-3-3-3-3---3-3-3-3-3---1-1-1-1-1-|
G:-2-2-2-2---2-2-2-2-2---3-3-3-3-3---0-0-0-0-0-|
D:-3-3-3-3---0-0-0-0-0---3-3-3-3-3---2-2-2-2-2-|
A:-3-3-3-3---------------1-1-1-1-1---3-3-3-3-3-|
E:-1-1-1-1-------------------------------------|


you heard me saying a prayer for someone I really
e:---------------------------------------------|
B:-1-1-1-1---3-3-3-3-3---3-3-3-3-3---1-1-1-1-1-|
G:-2-2-2-2---2-2-2-2-2---3-3-3-3-3---0-0-0-0-0-|
D:-3-3-3-3---0-0-0-0-0---3-3-3-3-3---2-2-2-2-2-|
A:-3-3-3-3---------------1-1-1-1-1---3-3-3-3-3-|
E:-1-1-1-1-------------------------------------|

   care for    waa waa waa waah And then there
e:--------------------------------------------|
B:--------------------------------------------|
G:-2-2-2-2-2---3-3-3-3-3---2-2-2-2-2--2-2-2-2-|
D:-3-3-3-3-3---3-3-3-3-3---3-3-3-3-3--3-3-3-3-|
A:-3-3-3-3-3---1-1-1-1-1---3-3-3-3-3--3-3-3-3-|
E:-1-1-1-1-1---------------1-1-1-1-1--1-1-1-1-|

    suddenly     appeared    before me the only 
e:-------------------------------------|
B:-------------------------------------|
G:-4-4-4-4-4-4--4-4-4-4-4-4--2-2-2-2-2-|
D:-5-5-5-5-5-5--3-3-3-3-3-3--3-3-3-3-3-|
A:-5-5-5-5-5-5--5-5-5-5-5-5--3-3-3-3-3-|
E:-3-3-3-3-3-3--3-3-3-3-3-3--1-1-1-1-1-|

   one my arms will ever     hold I heard
e:-------------------------------------|
B:-------------------------------------|
G:-4-4-4-4-4-4--4-4-4-4-4-4--2-2-2-2-2-|
D:-5-5-5-5-5-5--3-3-3-3-3-3--3-3-3-3-3-|
A:-5-5-5-5-5-5--5-5-5-5-5-5--3-3-3-3-3-|
E:-3-3-3-3-3-3--3-3-3-3-3-3--1-1-1-1-1-|

   somebody whisper  please adore me
e:-------------------------------------|
B:-------------------------------------|
G:-4-4-4-4-4-4--4-4-4-4-4-4--2-2-2-2-2-|
D:-5-5-5-5-5-5--3-3-3-3-3-3--3-3-3-3-3-|
A:-5-5-5-5-5-5--5-5-5-5-5-5--3-3-3-3-3-|
E:-3-3-3-3-3-3--3-3-3-3-3-3--1-1-1-1-1-|

   I looked the moon had turned to gold oohhh oohhh ooohh
e:-3-3-3-3-3-3--3-3-3-3-3-3------------|
B:-3-3-3-3-3-3--3-3-3-3-3-3--5-5-5-5-5-|
G:-4-4-4-4-4-4--4-4-4-4-4-4--5-5-5-5-5-|
D:-5-5-5-5-5-5--3-3-3-3-3-3--5-5-5-5-5-|
A:-5-5-5-5-5-5--5-5-5-5-5-5--3-3-3-3-3-|
E:-3-3-3-3-3-3--3-3-3-3-3-3------------|

   Blue Moon now I'm no longer alone...
e:---------------------------------------------|
B:-1-1-1-1---3-3-3-3-3---3-3-3-3-3---1-1-1-1-1-|
G:-2-2-2-2---2-2-2-2-2---3-3-3-3-3---0-0-0-0-0-|
D:-3-3-3-3---0-0-0-0-0---3-3-3-3-3---2-2-2-2-2-|
A:-3-3-3-3---------------1-1-1-1-1---3-3-3-3-3-|
E:-1-1-1-1-------------------------------------|


  Bom ba ba bom  ba bom ba bom bom  ba ba bom ba ba bom                                            
e:-----------------------------------------------------|
B:-1-----------------1--------------------1------------|
G:-0-----------------0--------------------0------------|
D:-2-----------------2--------------------2------------|
A:-3-----------------3--------------------3------------|
E:-----------------------------------------------------|

  ba dang a dang dang  ba ding a dong ding
e:------------------------------------------------------------|
B:----1--------------------1----------------------------------|
G:----0--------------------0----------------------------------|
D:----2--------------------2----------------------------------|
A:-------------------------3--3-1-0---------------------------|
E:------------------------------------------------------------|

                                             x3
e:---------------------------------------------|
B:-1-1-1-1---3-3-3-3-3---3-3-3-3-3---1-1-1-1-1-|
G:-2-2-2-2---2-2-2-2-2---3-3-3-3-3---0-0-0-0-0-|
D:-3-3-3-3---0-0-0-0-0---3-3-3-3-3---2-2-2-2-2-|
A:-3-3-3-3---------------1-1-1-1-1---3-3-3-3-3-|
E:-1-1-1-1-------------------------------------|

e:-------------------------------------------------------|
B:-1-----------------1--------------------1--------------|
G:-0-----------------0--------------------0--------------|
D:-2-----------------2--------------------2----------0-2-|
A:-3-----------------3--------------------3----3-3-3-----|
E:-------------------------------------------------------|

                                             x3
e:---------------------------------------------|
B:-1-1-1-1---3-3-3-3-3---3-3-3-3-3---1-1-1-1-1-|
G:-2-2-2-2---2-2-2-2-2---3-3-3-3-3---0-0-0-0-0-|
D:-3-3-3-3---0-0-0-0-0---3-3-3-3-3---2-2-2-2-2-|
A:-3-3-3-3---------------1-1-1-1-1---3-3-3-3-3-|
E:-1-1-1-1-------------------------------------|

               waa waa waa waah And then there
e:--------------------------------------------|
B:--------------------------------------------|
G:-2-2-2-2-2---3-3-3-3-3---2-2-2-2-2--2-2-2-2-|
D:-3-3-3-3-3---3-3-3-3-3---3-3-3-3-3--3-3-3-3-|
A:-3-3-3-3-3---1-1-1-1-1---3-3-3-3-3--3-3-3-3-|
E:-1-1-1-1-1---------------1-1-1-1-1--1-1-1-1-|

    suddenly     appeared    before me the only 
e:-------------------------------------|
B:-------------------------------------|
G:-4-4-4-4-4-4--4-4-4-4-4-4--2-2-2-2-2-|
D:-5-5-5-5-5-5--3-3-3-3-3-3--3-3-3-3-3-|
A:-5-5-5-5-5-5--5-5-5-5-5-5--3-3-3-3-3-|
E:-3-3-3-3-3-3--3-3-3-3-3-3--1-1-1-1-1-|

   one my arms will ever     hold I heard
e:-------------------------------------|
B:-------------------------------------|
G:-4-4-4-4-4-4--4-4-4-4-4-4--2-2-2-2-2-|
D:-5-5-5-5-5-5--3-3-3-3-3-3--3-3-3-3-3-|
A:-5-5-5-5-5-5--5-5-5-5-5-5--3-3-3-3-3-|
E:-3-3-3-3-3-3--3-3-3-3-3-3--1-1-1-1-1-|

   somebody whisper  please adore me
e:-------------------------------------|
B:-------------------------------------|
G:-4-4-4-4-4-4--4-4-4-4-4-4--2-2-2-2-2-|
D:-5-5-5-5-5-5--3-3-3-3-3-3--3-3-3-3-3-|
A:-5-5-5-5-5-5--5-5-5-5-5-5--3-3-3-3-3-|
E:-3-3-3-3-3-3--3-3-3-3-3-3--1-1-1-1-1-|

   I looked the moon had turned to gold oohhh oohhh ooohh
e:-3-3-3-3-3-3--3-3-3-3-3-3------------|
B:-3-3-3-3-3-3--3-3-3-3-3-3--5-5-5-5-5-|
G:-4-4-4-4-4-4--4-4-4-4-4-4--5-5-5-5-5-|
D:-5-5-5-5-5-5--3-3-3-3-3-3--5-5-5-5-5-|
A:-5-5-5-5-5-5--5-5-5-5-5-5--3-3-3-3-3-|
E:-3-3-3-3-3-3--3-3-3-3-3-3------------|

   Blue Moon... ahhh ahh ahh Dip di dip di dip
e:---------------------------------------------|
B:-1-1-1-1---3-3-3-3-3---3-3-3-3-3---1-1-1-1-1-|
G:-2-2-2-2---2-2-2-2-2---3-3-3-3-3---0-0-0-0-0-|
D:-3-3-3-3---0-0-0-0-0---3-3-3-3-3---2-2-2-2-2-|
A:-3-3-3-3---------------1-1-1-1-1---3-3-3-3-3-|
E:-1-1-1-1-------------------------------------|

  Bom ba ba bom  ba bom ba bom bom  ba ba bom ba ba bom                                            
e:-----------------------------------------------------|
B:-1-----------------1--------------------1------------|
G:-0-----------------0--------------------0------------|
D:-2-----------------2--------------------2------------|
A:-3-----------------3--------------------3------------|
E:-----------------------------------------------------|

  ba dang a dang dang  ba ding a dong ding         bluuue moooooon
e:------------------------------------------------------------|
B:----1--------------------1----------------------------------|
G:----0--------------------0----------------------------------|
D:----2--------------------2----------------------------------|
A:-------------------------3----------------------------------|
E:------------------------------------------------------------|



hillo son mex

28/11/12
Tap to rate this tab
# A B C D E F G H I J K L M N O P Q R S T U V W X Y Z