Song name
# A B C D E F G H I J K L M N O P Q R S T U V W X Y Z

The Mardy Bums - Put Wood In Hole tab

Artist: The Mardy Bums  http://www.myspace.com/themardybums
Track: Put Wood In Hole
Single: Who The Ch*ff Are The...
Tabber: Woodshed

INTRO

e|--------------------------------------------------------------------|
B|-----5-------5--------5-------5-------------------------------------|
G|---6---6---4---4----6---6---4---4-----------------------------------|
D|--------------------------------------------------------------------|
A|--------------------------------------------------------------------|
E|--------------------------------------------------------------------|



VERSE 1

With intro riff


A
Put wood in hole

C#m
You daft southern toff

D
Breadcake, ferret

Dmaj7
Devonshire goth
 
A
Hendersons, Wards

C#m
Eckington Tip

D
Flat cap, whippet,

Dmaj7
Washington quiz

Bm
Drunk in the park.

C#m
Fuzz Club slipper

D
Botanical Lark.

E
Anyone for Wicker?

 CHORUS

            A
e|----------12----10----9----------------------------------------------|
B|-------------------------10------------------------------------------|
G|---------------------------------------------------------------------|
D|---------------------------------------------------------------------|
A|---------------------------------------------------------------------|
E|---------------------------------------------------------------------|
       You tight  arsed bugger


          A
e|----------12----10----9----------------------------------------------|
B|--------------------------10-----------------------------------------|
G|---------------------------------------------------------------------|
D|---------------------------------------------------------------------|
A|---------------------------------------------------------------------|
E|---------------------------------------------------------------------|
       You tight  arsed bugger

   C#m                     D
e|-----9----9----------------9----9-----------------------------------------|
B|--10---10---10----------10---10---10---------------------------------------------------|
G|---------------------------------------------------------------------------|
D|---------------------------------------------------------------------------|
A|---------------------------------------------------------------------------|
E|---------------------------------------------------------------------------|
             You posh southern get

Repeat chorus


GUITAR BREAK

     A                C#m    D  Dmaj7
e|---------------------------------------------------------------------|
B|-----5-------5--------5-------5--------------------------------------|
G|---6---6---4---4----6---6---4---4------------------------------------|
D|---------------------------------------------------------------------|
A|---------------------------------------------------------------------|
E|---------------------------------------------------------------------|

      A                   C#m     Dmaj7
e|---------------------------------------------------------------------|
B|-----5-------5--------5-------5--------------------------------------|
G|---6---6---4---4----6---6---4---4------------------------------------|
D|---------------------------------------------------------------------|
A|---------------------------------------------------------------------|
E|---------------------------------------------------------------------|

VERSE

A
Ubiquitous brass.

C#m
Chesnut cliché

D
Cobblestone path.

Dmaj7
Scargill toupe

Bm
Hoxton fin

C#m
Put it in the bin, sir

D
Botanical bear

E
Anyone for Wicker?

 
CHORUS x4
Tap to rate this tab
# A B C D E F G H I J K L M N O P Q R S T U V W X Y Z