Song name
# A B C D E F G H I J K L M N O P Q R S T U V W X Y Z

The Marked Men - Fix My Brain tab

Ok that sounds pretty good so enjoy. LOVE THE MARKED MEN!

The Marked Men- Fix My brain


Intro, main riff. Play it fast!
E|----------------------------------------------------------------------|
B|----------------------------------------------------------------------|
G|----------------------------------------------------------------------
D|-9-9-9-9-9-9-9-9-9--9-9-----------------------------------------------
A|-9-9-9-9-9-9-9-9-9--7-7-----------------------------------------------|
E|-7-7-7-7-7-7-7-7-7--7-7-----------------------------------------------|x4

Couplet

A little time away is good for the mind, its what I said but I don't think its true.
E|----------------------------------------------------------------------|
B|----------------------------------------------------------------------|
G|----------------------------------------------------------------------|
D|-9-9-9-9-9-9-9-9--9-9-9-9-9-9-9--6-6-6-6--4-4-4-4---------------------|
A|-9-9-9-9-9-9-9-9--7-7-7-7-7-7-7--6-6-6-6--4-4-4-4---------------------|
E|-7-7-7-7-7-7-7-7--7-7-7-7-7-7-7--4-4-4-4--2-2-2-2---------------------|

E|----------------------------------------------------------------------|
B|----------------------------------------------------------------------|
G|-----------------------------------------------------------------------
D|-9-9-9-9-9-9-9-9------------------------------------------------------|
A|-9-9-9-9-9-9-9-7------------------------------------------------------|
E|-7-7-7-7-7-7-7-7------------------------------------------------------|x1

Too much time alone I tried to fix the past, and I've tried, and I feel that 
I don't like the things I've done to you
E|----------------------------------------------------------------------|
B|----------------------------------------------------------------------|
G|----------------------------------------------------------------------|
D|-9-9-9-9-9-9-9-9--9-9-9-9-9-9-9--6-6-6-6--4-4-4-4--2-2-2-2------------
A|-9-9-9-9-9-9-9-9--7-7-7-7-7-7-7--6-6-6-6--4-4-4-4--2-2-2-2------------|
E|-7-7-7-7-7-7-7-7--7-7-7-7-7-7-7--4-4-4-4--2-2-2-2--0-0-0-0------------|

                ...I gotta fix my brain!... I gotta fix my brain..
E|----------------------------------------------------------------------|
B|----------------------------------------------------------------------|
G|----------------------------------------------------------------------|
D|-9-9-9-9--6-6-6-6-6-6-6-6--9-9-9-9-9-9-9-9--9-9-9-9-9-9-9-9-----------
A|-9-9-9-9--6-6-6-6-6-6-6-6--9-9-9-9-9-9-9-9--7-7-7-7-7-7-7-7-----------|
E|-7-7-7-7--4-4-4-4-4-4-4-4--7-7-7-7-7-7-7-7--7-7-7-7-7-7-7-7-----------|

E|----------------------------------------------------------------------|
B|----------------------------------------------------------------------|
G|----------------------------------------------------------------------
D|-9-9-9-9-9-9-9-9-9--9-9-----------------------------------------------
A|-9-9-9-9-9-9-9-9-9--7-7-----------------------------------------------|
E|-7-7-7-7-7-7-7-7-7--7-7-----------------------------------------------|x4

Ten years now with no home I don't know where to go, but I can tell I'm gonna 
make it through...
E|----------------------------------------------------------------------|
B|----------------------------------------------------------------------|
G|----------------------------------------------------------------------|
D|-9-9-9-9-9-9-9-9--9-9-9-9-9-9-9--6-6-6-6--4-4-4-4---------------------|
A|-9-9-9-9-9-9-9-9--7-7-7-7-7-7-7--6-6-6-6--4-4-4-4---------------------|
E|-7-7-7-7-7-7-7-7--7-7-7-7-7-7-7--4-4-4-4--2-2-2-2---------------------|


E|----------------------------------------------------------------------|
B|----------------------------------------------------------------------|
G|-----------------------------------------------------------------------
D|-9-9-9-9-9-9-9-9------------------------------------------------------|
A|-9-9-9-9-9-9-9-7------------------------------------------------------|
E|-7-7-7-7-7-7-7-7------------------------------------------------------|x1

I gotta go see you but then I turn around (?),but when I look, its all I see 
cause I get stuck on what you meant to me
E|----------------------------------------------------------------------|
B|----------------------------------------------------------------------|
G|----------------------------------------------------------------------|
D|-9-9-9-9-9-9-9-9--9-9-9-9-9-9-9--6-6-6-6--4-4-4-4--2-2-2-2------------
A|-9-9-9-9-9-9-9-9--7-7-7-7-7-7-7--6-6-6-6--4-4-4-4--2-2-2-2------------|
E|-7-7-7-7-7-7-7-7--7-7-7-7-7-7-7--4-4-4-4--2-2-2-2--0-0-0-0------------|

                             I gotta fix my brain, I gotta fix my brain
E|----------------------------------------------------------------------|
B|----------------------------------------------------------------------|
G|----------------------------------------------------------------------|
D|-7-7-7-7--6-6-6-6-6-6-6-6--9-9-9-9-9-9-9-9--9-9-9-9-9-9-9-9-----------
A|-7-7-7-7--6-6-6-6-6-6-6-6--9-9-9-9-9-9-9-9--7-7-7-7-7-7-7-7-----------|
E|-5-5-5-5--4-4-4-4-4-4-4-4--7-7-7-7-7-7-7-7--7-7-7-7-7-7-7-7-----------|

I gotta fix my brain,               I gotta fix my brain
E|----------------------------------------------------------------------|
B|----------------------------------------------------------------------|
G|----------------------------------------------------------------------|
D|-6-6-6-6-6-6-6-6--9-9-9-9-9-9-9-9--4-4-4-4--2-2-2-2--------------------
A|-6-6-6-6-6-6-6-6--9-9-9-9-9-9-9-9--4-4-4-4--2-2-2-2-------------------|
E|-4-4-4-4-4-4-4-4--7-7-7-7-7-7-7-7--2-2-2-2--0-0-0-0-------------------|

E|----------------------------------------------------------------------|
B|----------------------------------------------------------------------|
G|----------------------------------------------------------------------
D|-9-9-9-9-9-9-9-9--9-9-9-9-9-9-9-9-------------------------------------
A|-9-9-9-9-9-9-9-9--9-9-9-9-9-9-9-9-------------------------------------|
E|-7-7-7-7-7-7-7-7--7-7-7-7-7-7-7-7-------------------------------------|x4

Interlude solo

E|----------------------------------------------------------------------|
B|---------------------------------------9-9-9-9-10-10-10-10-9-9-9-9-7-7|
G|--9(x32)-4-4-4-4-6-8(x16)-6-6-6-4(x16)-9-9-9-9--9-9--9--9-9-9-9-9-8-|
D|----------------------------------------------------------------------
A|----------------------------------------------------------------------|
E|----------------------------------------------------------------------|


E|-----------------------------------------------------------------------|
B|--7-7-9-9-9-7-7-7-7------------------------------|
G|-8-8-9-9-9-9-8-8-8------------------------------|
D|-----------------------------------------------------------------------
A|-----------------------------------------------------------------------|
E|-----------------------------------------------------------------------|




Next

I gotta fix my brain
E|-----------------------------------------------------------------------|
B|-----------------------------------------------------------------------|
G|-----------------------------------------------------------------------|
D|-4-4-4-4--2-2-2-2--6-6-6-6-6-6-6-6--9-9-9-9-9-9-9-9--9-9-9-9-9-9-9-9---
A|-4-4-4-4--2-2-2-2--6-6-6-6-6-6-6-6--9-9-9-9-9-9-9-9--7-7-7-7-7-7-7-7---
E|-2-2-2-2--0-0-0-0--4-4-4-4-4-4-4-4--7-7-7-7-7-7-7-7--7-7-7-7-7-7-7-7---|

E|-----------------------------------------------------------------------|
B|-----------------------------------------------------------------------|
G|-----------------------------------------------------------------------|
D|-6-6-6-6-6-6-6-6--9-9-9-9-9-9-9-9--------------------------------------
A|-6-6-6-6-6-6-6-6--9-9-9-9-9-9-9-9--------------------------------------|
E|-4-4-4-4-4-4-4-4--7-7-7-7-7-7-7-7------------------------------------- x2

And finish with :


E|----------------------------------------------------------------------|
B|----------------------------------------------------------------------|
G|----------------------------------------------------------------------
D|-9-9-9-9-9-9-9-9-9--9-9-----------------------------------------------
A|-9-9-9-9-9-9-9-9-9--7-7-----------------------------------------------|
E|-7-7-7-7-7-7-7-7-7--7-7-----------------------------------------------|


done by Mickael CORNELUS

http://www.myspace.com/themarkedmen
Tap to rate this tab
 
# A B C D E F G H I J K L M N O P Q R S T U V W X Y Z