The Mars Volta - Lvia Lviaquez tab

-------------------------------------------------------------------------------
			     L'Via L'Viaquez - The Mars Volta
-------------------------------------------------------------------------------
Tabbed by:Jamie Rains
Email:homerunj3@msn.com
Tuning:standard
*These are all the correct notes, It is up to you to figure out the timing and arrangement

{Intro solo played by frusciante. Very fast with constant wah}
e|---------------------------------------------------------------------------|
B|-----------------------------------------------------6-----------6---------|
G|------3h5p3-3h5p3-3h5p3-3h5p3-3h5p3--5b-5b-5br--5/6/7-3h5p-3-5-5b-5br-3---3|
D|-3-3h5-----5-----5-----5-----5-----5----------------------5------------3h5-|
A|---------------------------------------------------------------------------|
E|---------------------------------------------------------------------------|

{ this is the main guitar on all verses, just repeats itself }
e|-6--8888----------------5-----|--------6-8888--------------5----------------|
B|----------8-6666------4---4---|-6-8888--------8-6666-----4---4--------------|
G|-3--5555----------2-5-------5-|--------3-5555--------2-5-------5------------|
D|----------5-3333--------------|-3-5555--------5-3333------------------------|
A|------------------------------|---------------------------------------------|
E|------------------------------|---------------------------------------------|
  {Bridge}
e|--------------------------------------------------------|
B|-8---8/10----8---8--------------------------------------|
G|--7------8~---7---7-------------------------------------|
D|---8-----------8---8-8/10-12/10-------------------------|
A|--------------------------------------------------------|
E|--------------------------------3--56-8-10~--10x8x6x5x3-|

{second solo played by Frusciante, again fast picking/wah pedal}
						{start double picking the 10}
e|--------------------------------------10h13p---10h13p---10h13p--1010h13p---|
B|-10--------11-----11-----11-----11-13b------13b------13b------13--------13-|
G|-12b--10h12--10h12--10h12--10h12-------------------------------------------|
D|---------------------------------------------------------------------------|
A|---------------------------------------------------------------------------|
E|---------------------------------------------------------------------------|
	{slide up to the 15th while shredding}
e|1010h13p---13h15p--13-1515151515-------------------------------------------|
B|--------13-------15--------------------------------------------------------|
G|---------------------------------------------------------------------------|
D|---------------------------------------------------------------------------|
A|---------------------------------------------------------------------------|
E|---------------------------------------------------------------------------|
{ends solo/w delay }
e|---------------------------------------------------------------------------|
B|---------------------------------------------------------------------------|
G|-10h12121121210~-----------------------------------------------------------|
D|----------------121110/8-10br----------------------------------------------|
A|-----------------------------8-10~-----------------------------------------|
E|---------------------------------------------------------------------------|



************************************

| /   slide up
| \   slide down
| h   hammer-on
| p   pull-off
| ~   vibrato
| +   harmonic
| x   Mute note
| b   Bend
| pb  Pre-bend
| br  Bend release
| pbr Pre-bend release
| brb Bend release bend

************************************
Tap to rate this tab
 
# A B C D E F G H I J K L M N O P Q R S T U V W X Y Z