Song name
# A B C D E F G H I J K L M N O P Q R S T U V W X Y Z

The Mars Volta - Lapochka tab

-------------------------------------------------------------------------------
                         LAPOCHKA - The Mars Volta
-------------------------------------------------------------------------------
Tabbed by: Steven Dubuque
Email: sdubuque43@gmail.com

Tuning: EADGBE

Really not much guitar in this song at all. In the verse I've tab out some of 
the keyboard parts if you feel like playing those.

0:20
e|---------------------------------------------------------------------------|
B|------5--------6----------6------------------------------------------------|
G|----3--------5---------7-----12\9------------------------------------------|
D|------------------------------x-x------------------------------------------|
A|----------5---------8--------10\7------------------------------------------|
E|--3------------------------------------------------------------------------|

0:40 

e|-----15\---------------------15\-------------------------------------------|
B|-----15\---------------------15\-----------13------------------------------|
G|-----15\--15/17\13--15-------15\-15/17\13---x--15/17-----------------------|
D|-----------x--x--x--15------------x--x--x---x------------------------------|
A|----------13/15\11--13-----------13/15\11---x------------------------------|
E|-(15)-------------------(15)---------------13------------------------------|


2:59 (you can do this on guitar if you want for this part. 
      its all synth in the song)

  Gm            Cm         Bb            Gm
e|---3-------------8----------10------------15-------------------------------|
B|---3-------------8----------x-------------15-------------------------------|
G|---3-------------8----------7-------------15-------------------------------|
D|---x-------------x----------x--------------x-------------------------------|
A|---x-------------x----------8--------------x-------------------------------|
E|-3-3-----------8-8--------6-6----------15-15-------------------------------|

************************************

| /   slide up
| \   slide down
| h   hammer-on
| p   pull-off
| ~   vibrato
| +   harmonic
| x   Mute note
| b   Bend
| pb  Pre-bend
| br  Bend release
| pbr Pre-bend release
| brb Bend release bend

************************************
Tap to rate this tab
 
# A B C D E F G H I J K L M N O P Q R S T U V W X Y Z