Song name
# A B C D E F G H I J K L M N O P Q R S T U V W X Y Z

The Mars Volta - Imago tab

-----------------------------------------------------------------------------
                                           IMAGO - The Mars Volta
-----------------------------------------------------------------------------
Tabbed by: Steven Dubuque
Email: sdubuque43@gmail.com

Tuning: EADGBE

There are two guitar tracks on this song.... one electric with a really really 
thick, quick cycling rotating chorus effect, and an acoustic guitar, which i 
believe may be classical. 

Anyways, this tab is intended for one guitar; no pick. finger style throughout. 


e|---2------5--------2-----------------------------2~------------------------|
B|--0-0---3--------2-----------2--------2----------3~------------------------|
G|-0----4--------2-----------0---0----2---2-----2~---------------------------|
D|-------------4---------0-2--------4---------4~-----------------------------|
A|---------------------4--------------------2~-------------------------------|
E|---------------------------------------------------------------------------|

0:32
e|---------5-------------------2~---------5------------------2~--------------|
B|--------(2)------------------3~--------(2)-----------------3~--------------|
G|---------2--2---2--(2)-----2~-----------2--2---2---------2~----------------|
D|-------2----2-------2----4~-----------2----2---2-------4~------------------|
A|-2-1-0--------0--/4----2~-------2-1-0--------0-------2~--------------------|
E|-------------------------------------------------2-3-----------------------|

(1:50)
e|---0-12--0--9-(0)--(0)--12-------0---7-----9-----0-2-------7---------------|
B|-7----0-(0)-8-(0)-7(0)--10----0-(0)----0-5-----8-----------7---------------|
G|-0---11-----0------(0)--11---11------7---0---9---------3--(7)----7---------|
D|------------------7------0-----------5---------------2---------9-----------|
A|------------0--------------12--------------7----------(4)----9-------------|
E|-0---------------------------------------------0---2-------7---------------|



************************************

| /   slide up
| \   slide down
| h   hammer-on
| p   pull-off
| ~   vibrato
| +   harmonic
| x   Mute note
| b   Bend
| pb  Pre-bend
| br  Bend release
| pbr Pre-bend release
| brb Bend release bend

************************************
Tap to rate this tab
# A B C D E F G H I J K L M N O P Q R S T U V W X Y Z